ISO-10303-21;
HEADER;
/* Generated by software containing ST-Developer
 * from STEP Tools, Inc. (www.steptools.com) 
 */

FILE_DESCRIPTION(
/* description */ (''),
/* implementation_level */ '2;1');

FILE_NAME(
/* name */ 'XB-9047',
/* time_stamp */ '2023-02-17T15:27:53+08:00',
/* author */ (''),
/* organization */ (''),
/* preprocessor_version */ 'ST-DEVELOPER v9',
/* originating_system */ 'EDS PLM SOLUTIONS - UNIGRAPHICS NX 2.0',
/* authorisation */ '');

FILE_SCHEMA (('CONFIG_CONTROL_DESIGN'));
ENDSEC;

DATA;
#10=SHAPE_REPRESENTATION_RELATIONSHIP('none',
'relationship between Admi287708ql-none and Admi287708ql-none',#94,#11);
#11=ADVANCED_BREP_SHAPE_REPRESENTATION('Admi287708ql-none',(#95),#587);
#12=CC_DESIGN_APPROVAL(#24,(#82));
#13=CC_DESIGN_APPROVAL(#25,(#84));
#14=CC_DESIGN_APPROVAL(#26,(#31));
#15=APPROVAL_PERSON_ORGANIZATION(#69,#24,#18);
#16=APPROVAL_PERSON_ORGANIZATION(#70,#25,#19);
#17=APPROVAL_PERSON_ORGANIZATION(#71,#26,#20);
#18=APPROVAL_ROLE('approver');
#19=APPROVAL_ROLE('approver');
#20=APPROVAL_ROLE('approver');
#21=APPROVAL_DATE_TIME(#39,#24);
#22=APPROVAL_DATE_TIME(#40,#25);
#23=APPROVAL_DATE_TIME(#41,#26);
#24=APPROVAL(#27,' ');
#25=APPROVAL(#28,' ');
#26=APPROVAL(#29,' ');
#27=APPROVAL_STATUS('not_yet_approved');
#28=APPROVAL_STATUS('not_yet_approved');
#29=APPROVAL_STATUS('not_yet_approved');
#30=CC_DESIGN_SECURITY_CLASSIFICATION(#31,(#84));
#31=SECURITY_CLASSIFICATION(' ',' ',#32);
#32=SECURITY_CLASSIFICATION_LEVEL('confidential');
#33=CC_DESIGN_DATE_AND_TIME_ASSIGNMENT(#37,#35,(#82));
#34=CC_DESIGN_DATE_AND_TIME_ASSIGNMENT(#38,#36,(#31));
#35=DATE_TIME_ROLE('creation_date');
#36=DATE_TIME_ROLE('classification_date');
#37=DATE_AND_TIME(#52,#42);
#38=DATE_AND_TIME(#53,#43);
#39=DATE_AND_TIME(#54,#44);
#40=DATE_AND_TIME(#55,#45);
#41=DATE_AND_TIME(#56,#46);
#42=LOCAL_TIME(0,0,0.,#47);
#43=LOCAL_TIME(0,0,0.,#48);
#44=LOCAL_TIME(0,0,0.,#49);
#45=LOCAL_TIME(0,0,0.,#50);
#46=LOCAL_TIME(0,0,0.,#51);
#47=COORDINATED_UNIVERSAL_TIME_OFFSET(0,0,.BEHIND.);
#48=COORDINATED_UNIVERSAL_TIME_OFFSET(0,0,.BEHIND.);
#49=COORDINATED_UNIVERSAL_TIME_OFFSET(0,0,.BEHIND.);
#50=COORDINATED_UNIVERSAL_TIME_OFFSET(0,0,.BEHIND.);
#51=COORDINATED_UNIVERSAL_TIME_OFFSET(0,0,.BEHIND.);
#52=CALENDAR_DATE(0,1,1);
#53=CALENDAR_DATE(0,1,1);
#54=CALENDAR_DATE(0,1,1);
#55=CALENDAR_DATE(0,1,1);
#56=CALENDAR_DATE(0,1,1);
#57=CC_DESIGN_PERSON_AND_ORGANIZATION_ASSIGNMENT(#65,#61,(#82,#84));
#58=CC_DESIGN_PERSON_AND_ORGANIZATION_ASSIGNMENT(#66,#62,(#86));
#59=CC_DESIGN_PERSON_AND_ORGANIZATION_ASSIGNMENT(#67,#63,(#84));
#60=CC_DESIGN_PERSON_AND_ORGANIZATION_ASSIGNMENT(#68,#64,(#31));
#61=PERSON_AND_ORGANIZATION_ROLE('creator');
#62=PERSON_AND_ORGANIZATION_ROLE('design_owner');
#63=PERSON_AND_ORGANIZATION_ROLE('design_supplier');
#64=PERSON_AND_ORGANIZATION_ROLE('classification_officer');
#65=PERSON_AND_ORGANIZATION(#79,#72);
#66=PERSON_AND_ORGANIZATION(#79,#73);
#67=PERSON_AND_ORGANIZATION(#79,#74);
#68=PERSON_AND_ORGANIZATION(#79,#75);
#69=PERSON_AND_ORGANIZATION(#79,#76);
#70=PERSON_AND_ORGANIZATION(#79,#77);
#71=PERSON_AND_ORGANIZATION(#79,#78);
#72=ORGANIZATION(' ',' ',' ');
#73=ORGANIZATION(' ',' ',' ');
#74=ORGANIZATION(' ',' ',' ');
#75=ORGANIZATION(' ',' ',' ');
#76=ORGANIZATION(' ',' ',' ');
#77=ORGANIZATION(' ',' ',' ');
#78=ORGANIZATION(' ',' ',' ');
#79=PERSON(' ',' ',' ',(' '),$,$);
#80=SHAPE_DEFINITION_REPRESENTATION(#81,#94);
#81=PRODUCT_DEFINITION_SHAPE('','',#82);
#82=PRODUCT_DEFINITION(' ','',#84,#83);
#83=DESIGN_CONTEXT('',#93,'design');
#84=PRODUCT_DEFINITION_FORMATION_WITH_SPECIFIED_SOURCE(' ',' ',#86,.NOT_KNOWN.);
#85=PRODUCT_RELATED_PRODUCT_CATEGORY('detail','',(#86));
#86=PRODUCT('Admi287708ql','Admi287708ql',' ',(#91));
#87=PRODUCT_CATEGORY_RELATIONSHIP(' ',' ',#89,#90);
#88=PRODUCT_CATEGORY_RELATIONSHIP('','',#90,#85);
#89=PRODUCT_CATEGORY('part',' ');
#90=PRODUCT_CATEGORY(' ','');
#91=MECHANICAL_CONTEXT(' ',#93,'mechanical');
#92=APPLICATION_PROTOCOL_DEFINITION('international standard',
'config_control_design',1994,#93);
#93=APPLICATION_CONTEXT(
'configuration controlled 3D designs of mechanical parts and assemblies
');
#94=SHAPE_REPRESENTATION('Admi287708ql-none',(#391),#587);
#95=MANIFOLD_SOLID_BREP('',#96);
#96=CLOSED_SHELL('',(#109,#110,#111,#112,#113,#114,#115,#116,#117,#118,#119,
#120,#121,#122,#123,#124));
#97=CYLINDRICAL_SURFACE('',#395,3.29999999998639);
#98=CYLINDRICAL_SURFACE('',#401,4.49999999998327);
#99=CYLINDRICAL_SURFACE('',#406,4.49999999998454);
#100=CYLINDRICAL_SURFACE('',#412,3.29999999999636);
#101=CIRCLE('',#393,3.29999999998639);
#102=CIRCLE('',#394,3.29999999998639);
#103=CIRCLE('',#399,4.49999999998327);
#104=CIRCLE('',#400,4.49999999998327);
#105=CIRCLE('',#404,4.49999999998454);
#106=CIRCLE('',#405,4.49999999998454);
#107=CIRCLE('',#410,3.29999999999636);
#108=CIRCLE('',#411,3.29999999999636);
#109=ADVANCED_FACE('',(#137),#125,.F.);
#110=ADVANCED_FACE('',(#138),#97,.F.);
#111=ADVANCED_FACE('',(#139),#126,.T.);
#112=ADVANCED_FACE('',(#140),#127,.T.);
#113=ADVANCED_FACE('',(#141),#128,.F.);
#114=ADVANCED_FACE('',(#142),#98,.T.);
#115=ADVANCED_FACE('',(#143),#129,.T.);
#116=ADVANCED_FACE('',(#144),#130,.F.);
#117=ADVANCED_FACE('',(#145),#99,.T.);
#118=ADVANCED_FACE('',(#146),#131,.T.);
#119=ADVANCED_FACE('',(#147),#132,.T.);
#120=ADVANCED_FACE('',(#148),#133,.F.);
#121=ADVANCED_FACE('',(#149),#100,.F.);
#122=ADVANCED_FACE('',(#150),#134,.T.);
#123=ADVANCED_FACE('',(#151),#135,.F.);
#124=ADVANCED_FACE('',(#152),#136,.T.);
#125=PLANE('',#392);
#126=PLANE('',#396);
#127=PLANE('',#397);
#128=PLANE('',#398);
#129=PLANE('',#402);
#130=PLANE('',#403);
#131=PLANE('',#407);
#132=PLANE('',#408);
#133=PLANE('',#409);
#134=PLANE('',#413);
#135=PLANE('',#414);
#136=PLANE('',#415);
#137=FACE_OUTER_BOUND('',#153,.T.);
#138=FACE_OUTER_BOUND('',#154,.T.);
#139=FACE_OUTER_BOUND('',#155,.T.);
#140=FACE_OUTER_BOUND('',#156,.T.);
#141=FACE_OUTER_BOUND('',#157,.T.);
#142=FACE_OUTER_BOUND('',#158,.T.);
#143=FACE_OUTER_BOUND('',#159,.T.);
#144=FACE_OUTER_BOUND('',#160,.T.);
#145=FACE_OUTER_BOUND('',#161,.T.);
#146=FACE_OUTER_BOUND('',#162,.T.);
#147=FACE_OUTER_BOUND('',#163,.T.);
#148=FACE_OUTER_BOUND('',#164,.T.);
#149=FACE_OUTER_BOUND('',#165,.T.);
#150=FACE_OUTER_BOUND('',#166,.T.);
#151=FACE_OUTER_BOUND('',#167,.T.);
#152=FACE_OUTER_BOUND('',#168,.T.);
#153=EDGE_LOOP('',(#169,#170,#171,#172));
#154=EDGE_LOOP('',(#173,#174,#175,#176));
#155=EDGE_LOOP('',(#177,#178,#179,#180));
#156=EDGE_LOOP('',(#181,#182,#183,#184));
#157=EDGE_LOOP('',(#185,#186,#187,#188));
#158=EDGE_LOOP('',(#189,#190,#191,#192));
#159=EDGE_LOOP('',(#193,#194,#195,#196));
#160=EDGE_LOOP('',(#197,#198,#199,#200));
#161=EDGE_LOOP('',(#201,#202,#203,#204));
#162=EDGE_LOOP('',(#205,#206,#207,#208));
#163=EDGE_LOOP('',(#209,#210,#211,#212));
#164=EDGE_LOOP('',(#213,#214,#215,#216));
#165=EDGE_LOOP('',(#217,#218,#219,#220));
#166=EDGE_LOOP('',(#221,#222,#223,#224));
#167=EDGE_LOOP('',(#225,#226,#227,#228,#229,#230,#231,#232,#233,#234,#235,
#236,#237,#238));
#168=EDGE_LOOP('',(#239,#240,#241,#242,#243,#244,#245,#246,#247,#248,#249,
#250,#251,#252));
#169=ORIENTED_EDGE('',*,*,#281,.T.);
#170=ORIENTED_EDGE('',*,*,#282,.F.);
#171=ORIENTED_EDGE('',*,*,#283,.F.);
#172=ORIENTED_EDGE('',*,*,#284,.T.);
#173=ORIENTED_EDGE('',*,*,#285,.F.);
#174=ORIENTED_EDGE('',*,*,#284,.F.);
#175=ORIENTED_EDGE('',*,*,#286,.T.);
#176=ORIENTED_EDGE('',*,*,#287,.T.);
#177=ORIENTED_EDGE('',*,*,#288,.F.);
#178=ORIENTED_EDGE('',*,*,#287,.F.);
#179=ORIENTED_EDGE('',*,*,#289,.T.);
#180=ORIENTED_EDGE('',*,*,#290,.T.);
#181=ORIENTED_EDGE('',*,*,#291,.F.);
#182=ORIENTED_EDGE('',*,*,#290,.F.);
#183=ORIENTED_EDGE('',*,*,#292,.T.);
#184=ORIENTED_EDGE('',*,*,#293,.T.);
#185=ORIENTED_EDGE('',*,*,#294,.T.);
#186=ORIENTED_EDGE('',*,*,#293,.F.);
#187=ORIENTED_EDGE('',*,*,#295,.F.);
#188=ORIENTED_EDGE('',*,*,#296,.T.);
#189=ORIENTED_EDGE('',*,*,#297,.T.);
#190=ORIENTED_EDGE('',*,*,#296,.F.);
#191=ORIENTED_EDGE('',*,*,#298,.F.);
#192=ORIENTED_EDGE('',*,*,#299,.T.);
#193=ORIENTED_EDGE('',*,*,#300,.F.);
#194=ORIENTED_EDGE('',*,*,#299,.F.);
#195=ORIENTED_EDGE('',*,*,#301,.T.);
#196=ORIENTED_EDGE('',*,*,#302,.T.);
#197=ORIENTED_EDGE('',*,*,#303,.T.);
#198=ORIENTED_EDGE('',*,*,#302,.F.);
#199=ORIENTED_EDGE('',*,*,#304,.F.);
#200=ORIENTED_EDGE('',*,*,#305,.T.);
#201=ORIENTED_EDGE('',*,*,#306,.T.);
#202=ORIENTED_EDGE('',*,*,#305,.F.);
#203=ORIENTED_EDGE('',*,*,#307,.F.);
#204=ORIENTED_EDGE('',*,*,#308,.T.);
#205=ORIENTED_EDGE('',*,*,#309,.F.);
#206=ORIENTED_EDGE('',*,*,#308,.F.);
#207=ORIENTED_EDGE('',*,*,#310,.T.);
#208=ORIENTED_EDGE('',*,*,#311,.T.);
#209=ORIENTED_EDGE('',*,*,#312,.F.);
#210=ORIENTED_EDGE('',*,*,#311,.F.);
#211=ORIENTED_EDGE('',*,*,#313,.T.);
#212=ORIENTED_EDGE('',*,*,#314,.T.);
#213=ORIENTED_EDGE('',*,*,#315,.T.);
#214=ORIENTED_EDGE('',*,*,#314,.F.);
#215=ORIENTED_EDGE('',*,*,#316,.F.);
#216=ORIENTED_EDGE('',*,*,#317,.T.);
#217=ORIENTED_EDGE('',*,*,#318,.F.);
#218=ORIENTED_EDGE('',*,*,#317,.F.);
#219=ORIENTED_EDGE('',*,*,#319,.T.);
#220=ORIENTED_EDGE('',*,*,#320,.T.);
#221=ORIENTED_EDGE('',*,*,#321,.F.);
#222=ORIENTED_EDGE('',*,*,#320,.F.);
#223=ORIENTED_EDGE('',*,*,#322,.T.);
#224=ORIENTED_EDGE('',*,*,#282,.T.);
#225=ORIENTED_EDGE('',*,*,#283,.T.);
#226=ORIENTED_EDGE('',*,*,#322,.F.);
#227=ORIENTED_EDGE('',*,*,#319,.F.);
#228=ORIENTED_EDGE('',*,*,#316,.T.);
#229=ORIENTED_EDGE('',*,*,#313,.F.);
#230=ORIENTED_EDGE('',*,*,#310,.F.);
#231=ORIENTED_EDGE('',*,*,#307,.T.);
#232=ORIENTED_EDGE('',*,*,#304,.T.);
#233=ORIENTED_EDGE('',*,*,#301,.F.);
#234=ORIENTED_EDGE('',*,*,#298,.T.);
#235=ORIENTED_EDGE('',*,*,#295,.T.);
#236=ORIENTED_EDGE('',*,*,#292,.F.);
#237=ORIENTED_EDGE('',*,*,#289,.F.);
#238=ORIENTED_EDGE('',*,*,#286,.F.);
#239=ORIENTED_EDGE('',*,*,#281,.F.);
#240=ORIENTED_EDGE('',*,*,#285,.T.);
#241=ORIENTED_EDGE('',*,*,#288,.T.);
#242=ORIENTED_EDGE('',*,*,#291,.T.);
#243=ORIENTED_EDGE('',*,*,#294,.F.);
#244=ORIENTED_EDGE('',*,*,#297,.F.);
#245=ORIENTED_EDGE('',*,*,#300,.T.);
#246=ORIENTED_EDGE('',*,*,#303,.F.);
#247=ORIENTED_EDGE('',*,*,#306,.F.);
#248=ORIENTED_EDGE('',*,*,#309,.T.);
#249=ORIENTED_EDGE('',*,*,#312,.T.);
#250=ORIENTED_EDGE('',*,*,#315,.F.);
#251=ORIENTED_EDGE('',*,*,#318,.T.);
#252=ORIENTED_EDGE('',*,*,#321,.T.);
#253=VERTEX_POINT('',#502);
#254=VERTEX_POINT('',#503);
#255=VERTEX_POINT('',#505);
#256=VERTEX_POINT('',#507);
#257=VERTEX_POINT('',#511);
#258=VERTEX_POINT('',#513);
#259=VERTEX_POINT('',#517);
#260=VERTEX_POINT('',#519);
#261=VERTEX_POINT('',#523);
#262=VERTEX_POINT('',#525);
#263=VERTEX_POINT('',#529);
#264=VERTEX_POINT('',#531);
#265=VERTEX_POINT('',#535);
#266=VERTEX_POINT('',#537);
#267=VERTEX_POINT('',#541);
#268=VERTEX_POINT('',#543);
#269=VERTEX_POINT('',#547);
#270=VERTEX_POINT('',#549);
#271=VERTEX_POINT('',#553);
#272=VERTEX_POINT('',#555);
#273=VERTEX_POINT('',#559);
#274=VERTEX_POINT('',#561);
#275=VERTEX_POINT('',#565);
#276=VERTEX_POINT('',#567);
#277=VERTEX_POINT('',#571);
#278=VERTEX_POINT('',#573);
#279=VERTEX_POINT('',#577);
#280=VERTEX_POINT('',#579);
#281=EDGE_CURVE('',#253,#254,#323,.T.);
#282=EDGE_CURVE('',#255,#254,#324,.T.);
#283=EDGE_CURVE('',#256,#255,#325,.T.);
#284=EDGE_CURVE('',#256,#253,#326,.T.);
#285=EDGE_CURVE('',#253,#257,#101,.T.);
#286=EDGE_CURVE('',#256,#258,#102,.T.);
#287=EDGE_CURVE('',#258,#257,#327,.T.);
#288=EDGE_CURVE('',#257,#259,#328,.T.);
#289=EDGE_CURVE('',#258,#260,#329,.T.);
#290=EDGE_CURVE('',#260,#259,#330,.T.);
#291=EDGE_CURVE('',#259,#261,#331,.T.);
#292=EDGE_CURVE('',#260,#262,#332,.T.);
#293=EDGE_CURVE('',#262,#261,#333,.T.);
#294=EDGE_CURVE('',#263,#261,#334,.T.);
#295=EDGE_CURVE('',#264,#262,#335,.T.);
#296=EDGE_CURVE('',#264,#263,#336,.T.);
#297=EDGE_CURVE('',#265,#263,#103,.T.);
#298=EDGE_CURVE('',#266,#264,#104,.T.);
#299=EDGE_CURVE('',#266,#265,#337,.T.);
#300=EDGE_CURVE('',#265,#267,#338,.T.);
#301=EDGE_CURVE('',#266,#268,#339,.T.);
#302=EDGE_CURVE('',#268,#267,#340,.T.);
#303=EDGE_CURVE('',#269,#267,#341,.T.);
#304=EDGE_CURVE('',#270,#268,#342,.T.);
#305=EDGE_CURVE('',#270,#269,#343,.T.);
#306=EDGE_CURVE('',#271,#269,#105,.T.);
#307=EDGE_CURVE('',#272,#270,#106,.T.);
#308=EDGE_CURVE('',#272,#271,#344,.T.);
#309=EDGE_CURVE('',#271,#273,#345,.T.);
#310=EDGE_CURVE('',#272,#274,#346,.T.);
#311=EDGE_CURVE('',#274,#273,#347,.T.);
#312=EDGE_CURVE('',#273,#275,#348,.T.);
#313=EDGE_CURVE('',#274,#276,#349,.T.);
#314=EDGE_CURVE('',#276,#275,#350,.T.);
#315=EDGE_CURVE('',#277,#275,#351,.T.);
#316=EDGE_CURVE('',#278,#276,#352,.T.);
#317=EDGE_CURVE('',#278,#277,#353,.T.);
#318=EDGE_CURVE('',#277,#279,#107,.T.);
#319=EDGE_CURVE('',#278,#280,#108,.T.);
#320=EDGE_CURVE('',#280,#279,#354,.T.);
#321=EDGE_CURVE('',#279,#254,#355,.T.);
#322=EDGE_CURVE('',#280,#255,#356,.T.);
#323=LINE('',#501,#357);
#324=LINE('',#504,#358);
#325=LINE('',#506,#359);
#326=LINE('',#508,#360);
#327=LINE('',#514,#361);
#328=LINE('',#516,#362);
#329=LINE('',#518,#363);
#330=LINE('',#520,#364);
#331=LINE('',#522,#365);
#332=LINE('',#524,#366);
#333=LINE('',#526,#367);
#334=LINE('',#528,#368);
#335=LINE('',#530,#369);
#336=LINE('',#532,#370);
#337=LINE('',#538,#371);
#338=LINE('',#540,#372);
#339=LINE('',#542,#373);
#340=LINE('',#544,#374);
#341=LINE('',#546,#375);
#342=LINE('',#548,#376);
#343=LINE('',#550,#377);
#344=LINE('',#556,#378);
#345=LINE('',#558,#379);
#346=LINE('',#560,#380);
#347=LINE('',#562,#381);
#348=LINE('',#564,#382);
#349=LINE('',#566,#383);
#350=LINE('',#568,#384);
#351=LINE('',#570,#385);
#352=LINE('',#572,#386);
#353=LINE('',#574,#387);
#354=LINE('',#580,#388);
#355=LINE('',#582,#389);
#356=LINE('',#583,#390);
#357=VECTOR('',#418,1.);
#358=VECTOR('',#419,1.);
#359=VECTOR('',#420,1.);
#360=VECTOR('',#421,1.);
#361=VECTOR('',#428,1.);
#362=VECTOR('',#431,1.);
#363=VECTOR('',#432,1.);
#364=VECTOR('',#433,1.);
#365=VECTOR('',#436,1.);
#366=VECTOR('',#437,1.);
#367=VECTOR('',#438,1.);
#368=VECTOR('',#441,1.);
#369=VECTOR('',#442,1.);
#370=VECTOR('',#443,1.);
#371=VECTOR('',#450,1.);
#372=VECTOR('',#453,1.);
#373=VECTOR('',#454,1.);
#374=VECTOR('',#455,1.);
#375=VECTOR('',#458,1.);
#376=VECTOR('',#459,1.);
#377=VECTOR('',#460,1.);
#378=VECTOR('',#467,1.);
#379=VECTOR('',#470,1.);
#380=VECTOR('',#471,1.);
#381=VECTOR('',#472,1.);
#382=VECTOR('',#475,1.);
#383=VECTOR('',#476,1.);
#384=VECTOR('',#477,1.);
#385=VECTOR('',#480,1.);
#386=VECTOR('',#481,1.);
#387=VECTOR('',#482,1.);
#388=VECTOR('',#489,1.);
#389=VECTOR('',#492,1.);
#390=VECTOR('',#493,1.);
#391=AXIS2_PLACEMENT_3D('',#500,#416,#417);
#392=AXIS2_PLACEMENT_3D('',#509,#422,#423);
#393=AXIS2_PLACEMENT_3D('',#510,#424,#425);
#394=AXIS2_PLACEMENT_3D('',#512,#426,#427);
#395=AXIS2_PLACEMENT_3D('',#515,#429,#430);
#396=AXIS2_PLACEMENT_3D('',#521,#434,#435);
#397=AXIS2_PLACEMENT_3D('',#527,#439,#440);
#398=AXIS2_PLACEMENT_3D('',#533,#444,#445);
#399=AXIS2_PLACEMENT_3D('',#534,#446,#447);
#400=AXIS2_PLACEMENT_3D('',#536,#448,#449);
#401=AXIS2_PLACEMENT_3D('',#539,#451,#452);
#402=AXIS2_PLACEMENT_3D('',#545,#456,#457);
#403=AXIS2_PLACEMENT_3D('',#551,#461,#462);
#404=AXIS2_PLACEMENT_3D('',#552,#463,#464);
#405=AXIS2_PLACEMENT_3D('',#554,#465,#466);
#406=AXIS2_PLACEMENT_3D('',#557,#468,#469);
#407=AXIS2_PLACEMENT_3D('',#563,#473,#474);
#408=AXIS2_PLACEMENT_3D('',#569,#478,#479);
#409=AXIS2_PLACEMENT_3D('',#575,#483,#484);
#410=AXIS2_PLACEMENT_3D('',#576,#485,#486);
#411=AXIS2_PLACEMENT_3D('',#578,#487,#488);
#412=AXIS2_PLACEMENT_3D('',#581,#490,#491);
#413=AXIS2_PLACEMENT_3D('',#584,#494,#495);
#414=AXIS2_PLACEMENT_3D('',#585,#496,#497);
#415=AXIS2_PLACEMENT_3D('',#586,#498,#499);
#416=DIRECTION('',(0.,0.,1.));
#417=DIRECTION('',(1.,0.,0.));
#418=DIRECTION('',(-0.999048221581856,-0.0436193873653702,0.));
#419=DIRECTION('',(0.,0.,-1.));
#420=DIRECTION('',(-0.999048221581856,-0.0436193873653702,0.));
#421=DIRECTION('',(0.,0.,-1.));
#422=DIRECTION('',(0.0436193873653702,-0.999048221581856,0.));
#423=DIRECTION('',(0.999048221581859,0.0436193873653679,0.));
#424=DIRECTION('',(0.,0.,1.));
#425=DIRECTION('',(0.999999999998564,0.,0.));
#426=DIRECTION('',(0.,0.,1.));
#427=DIRECTION('',(0.999999999998564,0.,0.));
#428=DIRECTION('',(0.,0.,-1.));
#429=DIRECTION('',(0.,0.,-1.));
#430=DIRECTION('',(-0.999999999998564,0.,0.));
#431=DIRECTION('',(0.,1.,0.));
#432=DIRECTION('',(0.,1.,0.));
#433=DIRECTION('',(0.,0.,-1.));
#434=DIRECTION('',(-1.,0.,0.));
#435=DIRECTION('',(0.,0.,1.));
#436=DIRECTION('',(1.,0.,0.));
#437=DIRECTION('',(1.,0.,0.));
#438=DIRECTION('',(0.,0.,-1.));
#439=DIRECTION('',(0.,1.,0.));
#440=DIRECTION('',(0.,0.,1.));
#441=DIRECTION('',(0.,1.,0.));
#442=DIRECTION('',(0.,1.,0.));
#443=DIRECTION('',(0.,0.,-1.));
#444=DIRECTION('',(-1.,0.,0.));
#445=DIRECTION('',(0.,0.,1.));
#446=DIRECTION('',(0.,0.,1.));
#447=DIRECTION('',(0.99999999999902,0.,0.));
#448=DIRECTION('',(0.,0.,1.));
#449=DIRECTION('',(0.99999999999902,0.,0.));
#450=DIRECTION('',(0.,0.,-1.));
#451=DIRECTION('',(0.,0.,-1.));
#452=DIRECTION('',(-0.99999999999902,0.,0.));
#453=DIRECTION('',(-0.99904822158187,-0.0436193873650634,0.));
#454=DIRECTION('',(-0.99904822158187,-0.0436193873650634,0.));
#455=DIRECTION('',(0.,0.,-1.));
#456=DIRECTION('',(0.0436193873650634,-0.99904822158187,0.));
#457=DIRECTION('',(0.999048221581873,0.0436193873650694,0.));
#458=DIRECTION('',(0.999048221581871,-0.0436193873650377,0.));
#459=DIRECTION('',(0.999048221581871,-0.0436193873650377,0.));
#460=DIRECTION('',(0.,0.,-1.));
#461=DIRECTION('',(0.0436193873650377,0.999048221581871,0.));
#462=DIRECTION('',(-0.999048221581873,0.043619387365041,0.));
#463=DIRECTION('',(0.,0.,1.));
#464=DIRECTION('',(0.999999999998737,0.,0.));
#465=DIRECTION('',(0.,0.,1.));
#466=DIRECTION('',(0.999999999998737,0.,0.));
#467=DIRECTION('',(0.,0.,-1.));
#468=DIRECTION('',(0.,0.,-1.));
#469=DIRECTION('',(-0.999999999998737,0.,0.));
#470=DIRECTION('',(0.,1.,0.));
#471=DIRECTION('',(0.,1.,0.));
#472=DIRECTION('',(0.,0.,-1.));
#473=DIRECTION('',(-1.,0.,0.));
#474=DIRECTION('',(0.,0.,1.));
#475=DIRECTION('',(1.,0.,0.));
#476=DIRECTION('',(1.,0.,0.));
#477=DIRECTION('',(0.,0.,-1.));
#478=DIRECTION('',(0.,1.,0.));
#479=DIRECTION('',(0.,0.,1.));
#480=DIRECTION('',(0.,1.,0.));
#481=DIRECTION('',(0.,1.,0.));
#482=DIRECTION('',(0.,0.,-1.));
#483=DIRECTION('',(-1.,0.,0.));
#484=DIRECTION('',(0.,0.,1.));
#485=DIRECTION('',(0.,0.,1.));
#486=DIRECTION('',(0.999999999999848,0.,0.));
#487=DIRECTION('',(0.,0.,1.));
#488=DIRECTION('',(0.999999999999848,0.,0.));
#489=DIRECTION('',(0.,0.,-1.));
#490=DIRECTION('',(0.,0.,-1.));
#491=DIRECTION('',(-0.999999999999848,0.,0.));
#492=DIRECTION('',(0.999048221581857,-0.0436193873653574,0.));
#493=DIRECTION('',(0.999048221581857,-0.0436193873653574,0.));
#494=DIRECTION('',(0.0436193873653574,0.999048221581857,0.));
#495=DIRECTION('',(-0.999048221581859,0.0436193873653536,0.));
#496=DIRECTION('',(0.,0.,-1.));
#497=DIRECTION('',(-1.,0.,0.));
#498=DIRECTION('',(0.,0.,-1.));
#499=DIRECTION('',(-1.,0.,0.));
#500=CARTESIAN_POINT('',(0.,0.,0.));
#501=CARTESIAN_POINT('',(112935.22881289,-100526.657862595,-75.));
#502=CARTESIAN_POINT('',(112935.22881289,-100526.657862595,-75.));
#503=CARTESIAN_POINT('',(112887.084868912,-100528.759872584,-75.));
#504=CARTESIAN_POINT('',(112887.084868912,-100528.759872584,75.));
#505=CARTESIAN_POINT('',(112887.084868912,-100528.759872584,75.));
#506=CARTESIAN_POINT('',(112935.22881289,-100526.657862595,75.));
#507=CARTESIAN_POINT('',(112935.22881289,-100526.657862595,75.));
#508=CARTESIAN_POINT('',(112935.22881289,-100526.657862595,75.));
#509=CARTESIAN_POINT('',(112935.22881289,-100526.657862595,75.));
#510=CARTESIAN_POINT('',(112935.084868912,-100523.361003463,-75.));
#511=CARTESIAN_POINT('',(112938.384868912,-100523.361003463,-75.));
#512=CARTESIAN_POINT('',(112935.084868912,-100523.361003463,75.));
#513=CARTESIAN_POINT('',(112938.384868912,-100523.361003463,75.));
#514=CARTESIAN_POINT('',(112938.384868912,-100523.361003463,75.));
#515=CARTESIAN_POINT('',(112935.084868912,-100523.361003463,75.));
#516=CARTESIAN_POINT('',(112938.384868912,-100523.361003463,-75.));
#517=CARTESIAN_POINT('',(112938.384868912,-100514.961015806,-75.));
#518=CARTESIAN_POINT('',(112938.384868912,-100523.361003463,75.));
#519=CARTESIAN_POINT('',(112938.384868912,-100514.961015806,75.));
#520=CARTESIAN_POINT('',(112938.384868912,-100514.961015806,75.));
#521=CARTESIAN_POINT('',(112938.384868912,-100523.361003463,75.));
#522=CARTESIAN_POINT('',(112834.584868913,-100514.961015806,-75.));
#523=CARTESIAN_POINT('',(112939.584868912,-100514.961015806,-75.));
#524=CARTESIAN_POINT('',(112834.584868913,-100514.961015806,75.));
#525=CARTESIAN_POINT('',(112939.584868912,-100514.961015806,75.));
#526=CARTESIAN_POINT('',(112939.584868912,-100514.961015806,75.));
#527=CARTESIAN_POINT('',(112834.584868913,-100514.961015806,75.));
#528=CARTESIAN_POINT('',(112939.584868912,-100523.361003463,-75.));
#529=CARTESIAN_POINT('',(112939.584868912,-100523.361003463,-75.));
#530=CARTESIAN_POINT('',(112939.584868912,-100523.361003463,75.));
#531=CARTESIAN_POINT('',(112939.584868912,-100523.361003463,75.));
#532=CARTESIAN_POINT('',(112939.584868912,-100523.361003463,75.));
#533=CARTESIAN_POINT('',(112939.584868912,-100523.361003463,75.));
#534=CARTESIAN_POINT('',(112935.084868912,-100523.361003463,-75.));
#535=CARTESIAN_POINT('',(112935.281156155,-100527.85672046,-75.));
#536=CARTESIAN_POINT('',(112935.084868912,-100523.361003463,75.));
#537=CARTESIAN_POINT('',(112935.281156155,-100527.85672046,75.));
#538=CARTESIAN_POINT('',(112935.281156155,-100527.85672046,75.));
#539=CARTESIAN_POINT('',(112935.084868912,-100523.361003463,75.));
#540=CARTESIAN_POINT('',(112935.281156155,-100527.85672046,-75.));
#541=CARTESIAN_POINT('',(112887.084868912,-100529.961015806,-75.));
#542=CARTESIAN_POINT('',(112935.281156155,-100527.85672046,75.));
#543=CARTESIAN_POINT('',(112887.084868912,-100529.961015806,75.));
#544=CARTESIAN_POINT('',(112887.084868912,-100529.961015806,75.));
#545=CARTESIAN_POINT('',(112935.281156155,-100527.85672046,75.));
#546=CARTESIAN_POINT('',(112838.888581669,-100527.85672046,-75.));
#547=CARTESIAN_POINT('',(112838.888581669,-100527.85672046,-75.));
#548=CARTESIAN_POINT('',(112838.888581669,-100527.85672046,75.));
#549=CARTESIAN_POINT('',(112838.888581669,-100527.85672046,75.));
#550=CARTESIAN_POINT('',(112838.888581669,-100527.85672046,75.));
#551=CARTESIAN_POINT('',(112838.888581669,-100527.85672046,75.));
#552=CARTESIAN_POINT('',(112839.084868912,-100523.361003463,-75.));
#553=CARTESIAN_POINT('',(112834.584868913,-100523.361003463,-75.));
#554=CARTESIAN_POINT('',(112839.084868912,-100523.361003463,75.));
#555=CARTESIAN_POINT('',(112834.584868913,-100523.361003463,75.));
#556=CARTESIAN_POINT('',(112834.584868913,-100523.361003463,75.));
#557=CARTESIAN_POINT('',(112839.084868912,-100523.361003463,75.));
#558=CARTESIAN_POINT('',(112834.584868913,-100523.361003463,-75.));
#559=CARTESIAN_POINT('',(112834.584868913,-100514.961015806,-75.));
#560=CARTESIAN_POINT('',(112834.584868913,-100523.361003463,75.));
#561=CARTESIAN_POINT('',(112834.584868913,-100514.961015806,75.));
#562=CARTESIAN_POINT('',(112834.584868913,-100514.961015806,75.));
#563=CARTESIAN_POINT('',(112834.584868913,-100523.361003463,75.));
#564=CARTESIAN_POINT('',(112834.584868913,-100514.961015806,-75.));
#565=CARTESIAN_POINT('',(112835.784868912,-100514.961015806,-75.));
#566=CARTESIAN_POINT('',(112834.584868913,-100514.961015806,75.));
#567=CARTESIAN_POINT('',(112835.784868912,-100514.961015806,75.));
#568=CARTESIAN_POINT('',(112835.784868912,-100514.961015806,75.));
#569=CARTESIAN_POINT('',(112834.584868913,-100514.961015806,75.));
#570=CARTESIAN_POINT('',(112835.784868912,-100523.361003463,-75.));
#571=CARTESIAN_POINT('',(112835.784868912,-100523.361003463,-75.));
#572=CARTESIAN_POINT('',(112835.784868912,-100523.361003463,75.));
#573=CARTESIAN_POINT('',(112835.784868912,-100523.361003463,75.));
#574=CARTESIAN_POINT('',(112835.784868912,-100523.361003463,75.));
#575=CARTESIAN_POINT('',(112835.784868912,-100523.361003463,75.));
#576=CARTESIAN_POINT('',(112839.084868912,-100523.361003463,-75.));
#577=CARTESIAN_POINT('',(112838.940924934,-100526.657862595,-75.));
#578=CARTESIAN_POINT('',(112839.084868912,-100523.361003463,75.));
#579=CARTESIAN_POINT('',(112838.940924934,-100526.657862595,75.));
#580=CARTESIAN_POINT('',(112838.940924934,-100526.657862595,75.));
#581=CARTESIAN_POINT('',(112839.084868912,-100523.361003463,75.));
#582=CARTESIAN_POINT('',(112838.940924934,-100526.657862595,-75.));
#583=CARTESIAN_POINT('',(112838.940924934,-100526.657862595,75.));
#584=CARTESIAN_POINT('',(112838.940924934,-100526.657862595,75.));
#585=CARTESIAN_POINT('',(112887.084868912,-100523.659762685,75.));
#586=CARTESIAN_POINT('',(112887.084868912,-100523.659762685,-75.));
#587=(
GEOMETRIC_REPRESENTATION_CONTEXT(3)
GLOBAL_UNCERTAINTY_ASSIGNED_CONTEXT((#588))
GLOBAL_UNIT_ASSIGNED_CONTEXT((#594,#590,#589))
REPRESENTATION_CONTEXT('XB-9047','TOP_LEVEL_ASSEMBLY_PART')
);
#588=UNCERTAINTY_MEASURE_WITH_UNIT(LENGTH_MEASURE(2.E-005),#594,
'DISTANCE_ACCURACY_VALUE','Maximum Tolerance applied to model');
#589=(
NAMED_UNIT(*)
SI_UNIT($,.STERADIAN.)
SOLID_ANGLE_UNIT()
);
#590=(
CONVERSION_BASED_UNIT('DEGREE',#592)
NAMED_UNIT(#591)
PLANE_ANGLE_UNIT()
);
#591=DIMENSIONAL_EXPONENTS(0.,0.,0.,0.,0.,0.,0.);
#592=PLANE_ANGLE_MEASURE_WITH_UNIT(PLANE_ANGLE_MEASURE(0.0174532925),#593);
#593=(
NAMED_UNIT(*)
PLANE_ANGLE_UNIT()
SI_UNIT($,.RADIAN.)
);
#594=(
LENGTH_UNIT()
NAMED_UNIT(*)
SI_UNIT(.MILLI.,.METRE.)
);
ENDSEC;
END-ISO-10303-21;
