ISO-10303-21;
HEADER;
/* Generated by software containing ST-Developer
 * from STEP Tools, Inc. (www.steptools.com) 
 */

FILE_DESCRIPTION(
/* description */ (''),
/* implementation_level */ '2;1');

FILE_NAME(
/* name */ 'XB-9050',
/* time_stamp */ '2023-06-30T13:19:30+08:00',
/* author */ (''),
/* organization */ (''),
/* preprocessor_version */ 'ST-DEVELOPER v9',
/* originating_system */ 'EDS PLM SOLUTIONS - UNIGRAPHICS NX 2.0',
/* authorisation */ '');

FILE_SCHEMA (('CONFIG_CONTROL_DESIGN'));
ENDSEC;

DATA;
#10=SHAPE_REPRESENTATION_RELATIONSHIP('none',
'relationship between AdmiE3C606tt-none and AdmiE3C606tt-none',#94,#11);
#11=ADVANCED_BREP_SHAPE_REPRESENTATION('AdmiE3C606tt-none',(#95),#691);
#12=CC_DESIGN_APPROVAL(#24,(#82));
#13=CC_DESIGN_APPROVAL(#25,(#84));
#14=CC_DESIGN_APPROVAL(#26,(#31));
#15=APPROVAL_PERSON_ORGANIZATION(#69,#24,#18);
#16=APPROVAL_PERSON_ORGANIZATION(#70,#25,#19);
#17=APPROVAL_PERSON_ORGANIZATION(#71,#26,#20);
#18=APPROVAL_ROLE('approver');
#19=APPROVAL_ROLE('approver');
#20=APPROVAL_ROLE('approver');
#21=APPROVAL_DATE_TIME(#39,#24);
#22=APPROVAL_DATE_TIME(#40,#25);
#23=APPROVAL_DATE_TIME(#41,#26);
#24=APPROVAL(#27,' ');
#25=APPROVAL(#28,' ');
#26=APPROVAL(#29,' ');
#27=APPROVAL_STATUS('not_yet_approved');
#28=APPROVAL_STATUS('not_yet_approved');
#29=APPROVAL_STATUS('not_yet_approved');
#30=CC_DESIGN_SECURITY_CLASSIFICATION(#31,(#84));
#31=SECURITY_CLASSIFICATION(' ',' ',#32);
#32=SECURITY_CLASSIFICATION_LEVEL('confidential');
#33=CC_DESIGN_DATE_AND_TIME_ASSIGNMENT(#37,#35,(#82));
#34=CC_DESIGN_DATE_AND_TIME_ASSIGNMENT(#38,#36,(#31));
#35=DATE_TIME_ROLE('creation_date');
#36=DATE_TIME_ROLE('classification_date');
#37=DATE_AND_TIME(#52,#42);
#38=DATE_AND_TIME(#53,#43);
#39=DATE_AND_TIME(#54,#44);
#40=DATE_AND_TIME(#55,#45);
#41=DATE_AND_TIME(#56,#46);
#42=LOCAL_TIME(0,0,0.,#47);
#43=LOCAL_TIME(0,0,0.,#48);
#44=LOCAL_TIME(0,0,0.,#49);
#45=LOCAL_TIME(0,0,0.,#50);
#46=LOCAL_TIME(0,0,0.,#51);
#47=COORDINATED_UNIVERSAL_TIME_OFFSET(0,0,.BEHIND.);
#48=COORDINATED_UNIVERSAL_TIME_OFFSET(0,0,.BEHIND.);
#49=COORDINATED_UNIVERSAL_TIME_OFFSET(0,0,.BEHIND.);
#50=COORDINATED_UNIVERSAL_TIME_OFFSET(0,0,.BEHIND.);
#51=COORDINATED_UNIVERSAL_TIME_OFFSET(0,0,.BEHIND.);
#52=CALENDAR_DATE(0,1,1);
#53=CALENDAR_DATE(0,1,1);
#54=CALENDAR_DATE(0,1,1);
#55=CALENDAR_DATE(0,1,1);
#56=CALENDAR_DATE(0,1,1);
#57=CC_DESIGN_PERSON_AND_ORGANIZATION_ASSIGNMENT(#65,#61,(#82,#84));
#58=CC_DESIGN_PERSON_AND_ORGANIZATION_ASSIGNMENT(#66,#62,(#86));
#59=CC_DESIGN_PERSON_AND_ORGANIZATION_ASSIGNMENT(#67,#63,(#84));
#60=CC_DESIGN_PERSON_AND_ORGANIZATION_ASSIGNMENT(#68,#64,(#31));
#61=PERSON_AND_ORGANIZATION_ROLE('creator');
#62=PERSON_AND_ORGANIZATION_ROLE('design_owner');
#63=PERSON_AND_ORGANIZATION_ROLE('design_supplier');
#64=PERSON_AND_ORGANIZATION_ROLE('classification_officer');
#65=PERSON_AND_ORGANIZATION(#79,#72);
#66=PERSON_AND_ORGANIZATION(#79,#73);
#67=PERSON_AND_ORGANIZATION(#79,#74);
#68=PERSON_AND_ORGANIZATION(#79,#75);
#69=PERSON_AND_ORGANIZATION(#79,#76);
#70=PERSON_AND_ORGANIZATION(#79,#77);
#71=PERSON_AND_ORGANIZATION(#79,#78);
#72=ORGANIZATION(' ',' ',' ');
#73=ORGANIZATION(' ',' ',' ');
#74=ORGANIZATION(' ',' ',' ');
#75=ORGANIZATION(' ',' ',' ');
#76=ORGANIZATION(' ',' ',' ');
#77=ORGANIZATION(' ',' ',' ');
#78=ORGANIZATION(' ',' ',' ');
#79=PERSON(' ',' ',' ',(' '),$,$);
#80=SHAPE_DEFINITION_REPRESENTATION(#81,#94);
#81=PRODUCT_DEFINITION_SHAPE('','',#82);
#82=PRODUCT_DEFINITION(' ','',#84,#83);
#83=DESIGN_CONTEXT('',#93,'design');
#84=PRODUCT_DEFINITION_FORMATION_WITH_SPECIFIED_SOURCE(' ',' ',#86,.NOT_KNOWN.);
#85=PRODUCT_RELATED_PRODUCT_CATEGORY('detail','',(#86));
#86=PRODUCT('AdmiE3C606tt','AdmiE3C606tt',' ',(#91));
#87=PRODUCT_CATEGORY_RELATIONSHIP(' ',' ',#89,#90);
#88=PRODUCT_CATEGORY_RELATIONSHIP('','',#90,#85);
#89=PRODUCT_CATEGORY('part',' ');
#90=PRODUCT_CATEGORY(' ','');
#91=MECHANICAL_CONTEXT(' ',#93,'mechanical');
#92=APPLICATION_PROTOCOL_DEFINITION('international standard',
'config_control_design',1994,#93);
#93=APPLICATION_CONTEXT(
'configuration controlled 3D designs of mechanical parts and assemblies
');
#94=SHAPE_REPRESENTATION('AdmiE3C606tt-none',(#449),#691);
#95=MANIFOLD_SOLID_BREP('',#96);
#96=CLOSED_SHELL('',(#118,#119,#120,#121,#122,#123,#124,#125,#126,#127,#128,
#129,#130,#131,#132,#133,#134,#135,#136));
#97=FACE_BOUND('',#183,.T.);
#98=FACE_BOUND('',#184,.T.);
#99=FACE_BOUND('',#186,.T.);
#100=FACE_BOUND('',#187,.T.);
#101=FACE_BOUND('',#188,.T.);
#102=CYLINDRICAL_SURFACE('',#461,4.49999999998454);
#103=CYLINDRICAL_SURFACE('',#464,4.49999999998327);
#104=CYLINDRICAL_SURFACE('',#470,3.29999999998639);
#105=CYLINDRICAL_SURFACE('',#473,3.29999999999636);
#106=CYLINDRICAL_SURFACE('',#479,33.8);
#107=CYLINDRICAL_SURFACE('',#482,35.);
#108=CIRCLE('',#459,4.49999999998454);
#109=CIRCLE('',#460,4.49999999998454);
#110=CIRCLE('',#462,4.49999999998327);
#111=CIRCLE('',#463,4.49999999998327);
#112=CIRCLE('',#468,3.29999999998639);
#113=CIRCLE('',#469,3.29999999998639);
#114=CIRCLE('',#471,3.29999999999636);
#115=CIRCLE('',#472,3.29999999999636);
#116=CIRCLE('',#478,33.8);
#117=CIRCLE('',#480,35.);
#118=ADVANCED_FACE('',(#150),#137,.T.);
#119=ADVANCED_FACE('',(#151),#138,.F.);
#120=ADVANCED_FACE('',(#152),#139,.T.);
#121=ADVANCED_FACE('',(#153),#140,.F.);
#122=ADVANCED_FACE('',(#154),#141,.F.);
#123=ADVANCED_FACE('',(#155),#102,.T.);
#124=ADVANCED_FACE('',(#156),#103,.T.);
#125=ADVANCED_FACE('',(#157),#142,.T.);
#126=ADVANCED_FACE('',(#158),#143,.F.);
#127=ADVANCED_FACE('',(#159),#144,.F.);
#128=ADVANCED_FACE('',(#160),#104,.F.);
#129=ADVANCED_FACE('',(#161),#105,.F.);
#130=ADVANCED_FACE('',(#162),#145,.T.);
#131=ADVANCED_FACE('',(#163),#146,.F.);
#132=ADVANCED_FACE('',(#164),#147,.F.);
#133=ADVANCED_FACE('',(#165),#148,.T.);
#134=ADVANCED_FACE('',(#97,#98),#106,.F.);
#135=ADVANCED_FACE('',(#166,#99),#149,.T.);
#136=ADVANCED_FACE('',(#100,#101),#107,.T.);
#137=PLANE('',#451);
#138=PLANE('',#453);
#139=PLANE('',#455);
#140=PLANE('',#457);
#141=PLANE('',#458);
#142=PLANE('',#465);
#143=PLANE('',#466);
#144=PLANE('',#467);
#145=PLANE('',#474);
#146=PLANE('',#475);
#147=PLANE('',#476);
#148=PLANE('',#477);
#149=PLANE('',#481);
#150=FACE_OUTER_BOUND('',#167,.T.);
#151=FACE_OUTER_BOUND('',#168,.T.);
#152=FACE_OUTER_BOUND('',#169,.T.);
#153=FACE_OUTER_BOUND('',#170,.T.);
#154=FACE_OUTER_BOUND('',#171,.T.);
#155=FACE_OUTER_BOUND('',#172,.T.);
#156=FACE_OUTER_BOUND('',#173,.T.);
#157=FACE_OUTER_BOUND('',#174,.T.);
#158=FACE_OUTER_BOUND('',#175,.T.);
#159=FACE_OUTER_BOUND('',#176,.T.);
#160=FACE_OUTER_BOUND('',#177,.T.);
#161=FACE_OUTER_BOUND('',#178,.T.);
#162=FACE_OUTER_BOUND('',#179,.T.);
#163=FACE_OUTER_BOUND('',#180,.T.);
#164=FACE_OUTER_BOUND('',#181,.T.);
#165=FACE_OUTER_BOUND('',#182,.T.);
#166=FACE_OUTER_BOUND('',#185,.T.);
#167=EDGE_LOOP('',(#193,#194,#195,#196,#197,#198));
#168=EDGE_LOOP('',(#199,#200,#201,#202,#203,#204));
#169=EDGE_LOOP('',(#205,#206,#207,#208,#209,#210));
#170=EDGE_LOOP('',(#211,#212,#213,#214,#215,#216));
#171=EDGE_LOOP('',(#217,#218,#219,#220));
#172=EDGE_LOOP('',(#221,#222,#223,#224));
#173=EDGE_LOOP('',(#225,#226,#227,#228));
#174=EDGE_LOOP('',(#229,#230,#231,#232));
#175=EDGE_LOOP('',(#233,#234,#235,#236));
#176=EDGE_LOOP('',(#237,#238,#239,#240));
#177=EDGE_LOOP('',(#241,#242,#243,#244));
#178=EDGE_LOOP('',(#245,#246,#247,#248));
#179=EDGE_LOOP('',(#249,#250,#251,#252));
#180=EDGE_LOOP('',(#253,#254,#255,#256));
#181=EDGE_LOOP('',(#257,#258,#259,#260,#261,#262,#263,#264,#265,#266,#267,
#268,#269,#270));
#182=EDGE_LOOP('',(#271,#272,#273,#274,#275,#276,#277,#278,#279,#280,#281,
#282,#283,#284));
#183=EDGE_LOOP('',(#285,#286));
#184=EDGE_LOOP('',(#287));
#185=EDGE_LOOP('',(#288));
#186=EDGE_LOOP('',(#289));
#187=EDGE_LOOP('',(#290,#291));
#188=EDGE_LOOP('',(#292));
#189=ELLIPSE('',#450,35.0333439807157,35.);
#190=ELLIPSE('',#452,35.0333439807158,35.);
#191=ELLIPSE('',#454,33.8322007585198,33.8);
#192=ELLIPSE('',#456,33.8322007585198,33.8);
#193=ORIENTED_EDGE('',*,*,#327,.T.);
#194=ORIENTED_EDGE('',*,*,#328,.T.);
#195=ORIENTED_EDGE('',*,*,#329,.T.);
#196=ORIENTED_EDGE('',*,*,#330,.F.);
#197=ORIENTED_EDGE('',*,*,#331,.F.);
#198=ORIENTED_EDGE('',*,*,#332,.T.);
#199=ORIENTED_EDGE('',*,*,#333,.F.);
#200=ORIENTED_EDGE('',*,*,#327,.F.);
#201=ORIENTED_EDGE('',*,*,#334,.F.);
#202=ORIENTED_EDGE('',*,*,#335,.T.);
#203=ORIENTED_EDGE('',*,*,#336,.T.);
#204=ORIENTED_EDGE('',*,*,#329,.F.);
#205=ORIENTED_EDGE('',*,*,#337,.T.);
#206=ORIENTED_EDGE('',*,*,#338,.F.);
#207=ORIENTED_EDGE('',*,*,#339,.F.);
#208=ORIENTED_EDGE('',*,*,#340,.T.);
#209=ORIENTED_EDGE('',*,*,#341,.T.);
#210=ORIENTED_EDGE('',*,*,#342,.T.);
#211=ORIENTED_EDGE('',*,*,#343,.F.);
#212=ORIENTED_EDGE('',*,*,#341,.F.);
#213=ORIENTED_EDGE('',*,*,#344,.F.);
#214=ORIENTED_EDGE('',*,*,#345,.T.);
#215=ORIENTED_EDGE('',*,*,#346,.T.);
#216=ORIENTED_EDGE('',*,*,#337,.F.);
#217=ORIENTED_EDGE('',*,*,#347,.T.);
#218=ORIENTED_EDGE('',*,*,#348,.F.);
#219=ORIENTED_EDGE('',*,*,#349,.F.);
#220=ORIENTED_EDGE('',*,*,#350,.T.);
#221=ORIENTED_EDGE('',*,*,#351,.F.);
#222=ORIENTED_EDGE('',*,*,#350,.F.);
#223=ORIENTED_EDGE('',*,*,#352,.T.);
#224=ORIENTED_EDGE('',*,*,#331,.T.);
#225=ORIENTED_EDGE('',*,*,#353,.F.);
#226=ORIENTED_EDGE('',*,*,#335,.F.);
#227=ORIENTED_EDGE('',*,*,#354,.T.);
#228=ORIENTED_EDGE('',*,*,#355,.T.);
#229=ORIENTED_EDGE('',*,*,#356,.F.);
#230=ORIENTED_EDGE('',*,*,#355,.F.);
#231=ORIENTED_EDGE('',*,*,#357,.T.);
#232=ORIENTED_EDGE('',*,*,#358,.T.);
#233=ORIENTED_EDGE('',*,*,#359,.T.);
#234=ORIENTED_EDGE('',*,*,#358,.F.);
#235=ORIENTED_EDGE('',*,*,#360,.F.);
#236=ORIENTED_EDGE('',*,*,#361,.T.);
#237=ORIENTED_EDGE('',*,*,#362,.T.);
#238=ORIENTED_EDGE('',*,*,#361,.F.);
#239=ORIENTED_EDGE('',*,*,#363,.F.);
#240=ORIENTED_EDGE('',*,*,#364,.T.);
#241=ORIENTED_EDGE('',*,*,#365,.T.);
#242=ORIENTED_EDGE('',*,*,#364,.F.);
#243=ORIENTED_EDGE('',*,*,#366,.F.);
#244=ORIENTED_EDGE('',*,*,#339,.T.);
#245=ORIENTED_EDGE('',*,*,#367,.T.);
#246=ORIENTED_EDGE('',*,*,#345,.F.);
#247=ORIENTED_EDGE('',*,*,#368,.F.);
#248=ORIENTED_EDGE('',*,*,#369,.T.);
#249=ORIENTED_EDGE('',*,*,#370,.F.);
#250=ORIENTED_EDGE('',*,*,#369,.F.);
#251=ORIENTED_EDGE('',*,*,#371,.T.);
#252=ORIENTED_EDGE('',*,*,#372,.T.);
#253=ORIENTED_EDGE('',*,*,#373,.T.);
#254=ORIENTED_EDGE('',*,*,#372,.F.);
#255=ORIENTED_EDGE('',*,*,#374,.F.);
#256=ORIENTED_EDGE('',*,*,#348,.T.);
#257=ORIENTED_EDGE('',*,*,#349,.T.);
#258=ORIENTED_EDGE('',*,*,#374,.T.);
#259=ORIENTED_EDGE('',*,*,#371,.F.);
#260=ORIENTED_EDGE('',*,*,#368,.T.);
#261=ORIENTED_EDGE('',*,*,#344,.T.);
#262=ORIENTED_EDGE('',*,*,#340,.F.);
#263=ORIENTED_EDGE('',*,*,#366,.T.);
#264=ORIENTED_EDGE('',*,*,#363,.T.);
#265=ORIENTED_EDGE('',*,*,#360,.T.);
#266=ORIENTED_EDGE('',*,*,#357,.F.);
#267=ORIENTED_EDGE('',*,*,#354,.F.);
#268=ORIENTED_EDGE('',*,*,#334,.T.);
#269=ORIENTED_EDGE('',*,*,#332,.F.);
#270=ORIENTED_EDGE('',*,*,#352,.F.);
#271=ORIENTED_EDGE('',*,*,#347,.F.);
#272=ORIENTED_EDGE('',*,*,#351,.T.);
#273=ORIENTED_EDGE('',*,*,#330,.T.);
#274=ORIENTED_EDGE('',*,*,#336,.F.);
#275=ORIENTED_EDGE('',*,*,#353,.T.);
#276=ORIENTED_EDGE('',*,*,#356,.T.);
#277=ORIENTED_EDGE('',*,*,#359,.F.);
#278=ORIENTED_EDGE('',*,*,#362,.F.);
#279=ORIENTED_EDGE('',*,*,#365,.F.);
#280=ORIENTED_EDGE('',*,*,#338,.T.);
#281=ORIENTED_EDGE('',*,*,#346,.F.);
#282=ORIENTED_EDGE('',*,*,#367,.F.);
#283=ORIENTED_EDGE('',*,*,#370,.T.);
#284=ORIENTED_EDGE('',*,*,#373,.F.);
#285=ORIENTED_EDGE('',*,*,#342,.F.);
#286=ORIENTED_EDGE('',*,*,#343,.T.);
#287=ORIENTED_EDGE('',*,*,#375,.F.);
#288=ORIENTED_EDGE('',*,*,#376,.T.);
#289=ORIENTED_EDGE('',*,*,#375,.T.);
#290=ORIENTED_EDGE('',*,*,#328,.F.);
#291=ORIENTED_EDGE('',*,*,#333,.T.);
#292=ORIENTED_EDGE('',*,*,#376,.F.);
#293=VERTEX_POINT('',#589);
#294=VERTEX_POINT('',#590);
#295=VERTEX_POINT('',#592);
#296=VERTEX_POINT('',#594);
#297=VERTEX_POINT('',#596);
#298=VERTEX_POINT('',#598);
#299=VERTEX_POINT('',#603);
#300=VERTEX_POINT('',#605);
#301=VERTEX_POINT('',#609);
#302=VERTEX_POINT('',#610);
#303=VERTEX_POINT('',#612);
#304=VERTEX_POINT('',#614);
#305=VERTEX_POINT('',#616);
#306=VERTEX_POINT('',#618);
#307=VERTEX_POINT('',#623);
#308=VERTEX_POINT('',#625);
#309=VERTEX_POINT('',#629);
#310=VERTEX_POINT('',#630);
#311=VERTEX_POINT('',#632);
#312=VERTEX_POINT('',#634);
#313=VERTEX_POINT('',#641);
#314=VERTEX_POINT('',#643);
#315=VERTEX_POINT('',#647);
#316=VERTEX_POINT('',#649);
#317=VERTEX_POINT('',#653);
#318=VERTEX_POINT('',#655);
#319=VERTEX_POINT('',#659);
#320=VERTEX_POINT('',#661);
#321=VERTEX_POINT('',#668);
#322=VERTEX_POINT('',#670);
#323=VERTEX_POINT('',#674);
#324=VERTEX_POINT('',#676);
#325=VERTEX_POINT('',#685);
#326=VERTEX_POINT('',#688);
#327=EDGE_CURVE('',#293,#294,#377,.T.);
#328=EDGE_CURVE('',#294,#295,#189,.T.);
#329=EDGE_CURVE('',#295,#296,#378,.T.);
#330=EDGE_CURVE('',#297,#296,#379,.T.);
#331=EDGE_CURVE('',#298,#297,#380,.T.);
#332=EDGE_CURVE('',#298,#293,#381,.T.);
#333=EDGE_CURVE('',#294,#295,#190,.T.);
#334=EDGE_CURVE('',#299,#293,#382,.T.);
#335=EDGE_CURVE('',#299,#300,#383,.T.);
#336=EDGE_CURVE('',#300,#296,#384,.T.);
#337=EDGE_CURVE('',#301,#302,#385,.T.);
#338=EDGE_CURVE('',#303,#302,#386,.T.);
#339=EDGE_CURVE('',#304,#303,#387,.T.);
#340=EDGE_CURVE('',#304,#305,#388,.T.);
#341=EDGE_CURVE('',#305,#306,#389,.T.);
#342=EDGE_CURVE('',#306,#301,#191,.T.);
#343=EDGE_CURVE('',#306,#301,#192,.T.);
#344=EDGE_CURVE('',#307,#305,#390,.T.);
#345=EDGE_CURVE('',#307,#308,#391,.T.);
#346=EDGE_CURVE('',#308,#302,#392,.T.);
#347=EDGE_CURVE('',#309,#310,#393,.T.);
#348=EDGE_CURVE('',#311,#310,#394,.T.);
#349=EDGE_CURVE('',#312,#311,#395,.T.);
#350=EDGE_CURVE('',#312,#309,#396,.T.);
#351=EDGE_CURVE('',#309,#297,#108,.T.);
#352=EDGE_CURVE('',#312,#298,#109,.T.);
#353=EDGE_CURVE('',#300,#313,#110,.T.);
#354=EDGE_CURVE('',#299,#314,#111,.T.);
#355=EDGE_CURVE('',#314,#313,#397,.T.);
#356=EDGE_CURVE('',#313,#315,#398,.T.);
#357=EDGE_CURVE('',#314,#316,#399,.T.);
#358=EDGE_CURVE('',#316,#315,#400,.T.);
#359=EDGE_CURVE('',#317,#315,#401,.T.);
#360=EDGE_CURVE('',#318,#316,#402,.T.);
#361=EDGE_CURVE('',#318,#317,#403,.T.);
#362=EDGE_CURVE('',#319,#317,#404,.T.);
#363=EDGE_CURVE('',#320,#318,#405,.T.);
#364=EDGE_CURVE('',#320,#319,#406,.T.);
#365=EDGE_CURVE('',#303,#319,#112,.T.);
#366=EDGE_CURVE('',#304,#320,#113,.T.);
#367=EDGE_CURVE('',#321,#308,#114,.T.);
#368=EDGE_CURVE('',#322,#307,#115,.T.);
#369=EDGE_CURVE('',#322,#321,#407,.T.);
#370=EDGE_CURVE('',#321,#323,#408,.T.);
#371=EDGE_CURVE('',#322,#324,#409,.T.);
#372=EDGE_CURVE('',#324,#323,#410,.T.);
#373=EDGE_CURVE('',#310,#323,#411,.T.);
#374=EDGE_CURVE('',#311,#324,#412,.T.);
#375=EDGE_CURVE('',#325,#325,#116,.T.);
#376=EDGE_CURVE('',#326,#326,#117,.T.);
#377=LINE('',#588,#413);
#378=LINE('',#593,#414);
#379=LINE('',#595,#415);
#380=LINE('',#597,#416);
#381=LINE('',#599,#417);
#382=LINE('',#602,#418);
#383=LINE('',#604,#419);
#384=LINE('',#606,#420);
#385=LINE('',#608,#421);
#386=LINE('',#611,#422);
#387=LINE('',#613,#423);
#388=LINE('',#615,#424);
#389=LINE('',#617,#425);
#390=LINE('',#622,#426);
#391=LINE('',#624,#427);
#392=LINE('',#626,#428);
#393=LINE('',#628,#429);
#394=LINE('',#631,#430);
#395=LINE('',#633,#431);
#396=LINE('',#635,#432);
#397=LINE('',#644,#433);
#398=LINE('',#646,#434);
#399=LINE('',#648,#435);
#400=LINE('',#650,#436);
#401=LINE('',#652,#437);
#402=LINE('',#654,#438);
#403=LINE('',#656,#439);
#404=LINE('',#658,#440);
#405=LINE('',#660,#441);
#406=LINE('',#662,#442);
#407=LINE('',#671,#443);
#408=LINE('',#673,#444);
#409=LINE('',#675,#445);
#410=LINE('',#677,#446);
#411=LINE('',#679,#447);
#412=LINE('',#680,#448);
#413=VECTOR('',#485,1.);
#414=VECTOR('',#488,1.);
#415=VECTOR('',#489,1.);
#416=VECTOR('',#490,1.);
#417=VECTOR('',#491,1.);
#418=VECTOR('',#496,1.);
#419=VECTOR('',#497,1.);
#420=VECTOR('',#498,1.);
#421=VECTOR('',#501,1.);
#422=VECTOR('',#502,1.);
#423=VECTOR('',#503,1.);
#424=VECTOR('',#504,1.);
#425=VECTOR('',#505,1.);
#426=VECTOR('',#512,1.);
#427=VECTOR('',#513,1.);
#428=VECTOR('',#514,1.);
#429=VECTOR('',#517,1.);
#430=VECTOR('',#518,1.);
#431=VECTOR('',#519,1.);
#432=VECTOR('',#520,1.);
#433=VECTOR('',#533,1.);
#434=VECTOR('',#536,1.);
#435=VECTOR('',#537,1.);
#436=VECTOR('',#538,1.);
#437=VECTOR('',#541,1.);
#438=VECTOR('',#542,1.);
#439=VECTOR('',#543,1.);
#440=VECTOR('',#546,1.);
#441=VECTOR('',#547,1.);
#442=VECTOR('',#548,1.);
#443=VECTOR('',#561,1.);
#444=VECTOR('',#564,1.);
#445=VECTOR('',#565,1.);
#446=VECTOR('',#566,1.);
#447=VECTOR('',#569,1.);
#448=VECTOR('',#570,1.);
#449=AXIS2_PLACEMENT_3D('',#587,#483,#484);
#450=AXIS2_PLACEMENT_3D('',#591,#486,#487);
#451=AXIS2_PLACEMENT_3D('',#600,#492,#493);
#452=AXIS2_PLACEMENT_3D('',#601,#494,#495);
#453=AXIS2_PLACEMENT_3D('',#607,#499,#500);
#454=AXIS2_PLACEMENT_3D('',#619,#506,#507);
#455=AXIS2_PLACEMENT_3D('',#620,#508,#509);
#456=AXIS2_PLACEMENT_3D('',#621,#510,#511);
#457=AXIS2_PLACEMENT_3D('',#627,#515,#516);
#458=AXIS2_PLACEMENT_3D('',#636,#521,#522);
#459=AXIS2_PLACEMENT_3D('',#637,#523,#524);
#460=AXIS2_PLACEMENT_3D('',#638,#525,#526);
#461=AXIS2_PLACEMENT_3D('',#639,#527,#528);
#462=AXIS2_PLACEMENT_3D('',#640,#529,#530);
#463=AXIS2_PLACEMENT_3D('',#642,#531,#532);
#464=AXIS2_PLACEMENT_3D('',#645,#534,#535);
#465=AXIS2_PLACEMENT_3D('',#651,#539,#540);
#466=AXIS2_PLACEMENT_3D('',#657,#544,#545);
#467=AXIS2_PLACEMENT_3D('',#663,#549,#550);
#468=AXIS2_PLACEMENT_3D('',#664,#551,#552);
#469=AXIS2_PLACEMENT_3D('',#665,#553,#554);
#470=AXIS2_PLACEMENT_3D('',#666,#555,#556);
#471=AXIS2_PLACEMENT_3D('',#667,#557,#558);
#472=AXIS2_PLACEMENT_3D('',#669,#559,#560);
#473=AXIS2_PLACEMENT_3D('',#672,#562,#563);
#474=AXIS2_PLACEMENT_3D('',#678,#567,#568);
#475=AXIS2_PLACEMENT_3D('',#681,#571,#572);
#476=AXIS2_PLACEMENT_3D('',#682,#573,#574);
#477=AXIS2_PLACEMENT_3D('',#683,#575,#576);
#478=AXIS2_PLACEMENT_3D('',#684,#577,#578);
#479=AXIS2_PLACEMENT_3D('',#686,#579,#580);
#480=AXIS2_PLACEMENT_3D('',#687,#581,#582);
#481=AXIS2_PLACEMENT_3D('',#689,#583,#584);
#482=AXIS2_PLACEMENT_3D('',#690,#585,#586);
#483=DIRECTION('',(0.,0.,1.));
#484=DIRECTION('',(1.,0.,0.));
#485=DIRECTION('',(0.,0.,1.));
#486=DIRECTION('',(0.0436193873650377,0.999048221581871,0.));
#487=DIRECTION('',(-0.999048221581871,0.0436193873650377,0.));
#488=DIRECTION('',(0.,0.,1.));
#489=DIRECTION('',(0.999048221581871,-0.0436193873650377,0.));
#490=DIRECTION('',(0.,0.,1.));
#491=DIRECTION('',(0.999048221581871,-0.0436193873650377,0.));
#492=DIRECTION('',(-0.0436193873650377,-0.999048221581871,0.));
#493=DIRECTION('',(0.999048221581873,-0.043619387365041,0.));
#494=DIRECTION('',(0.0436193873650634,-0.99904822158187,0.));
#495=DIRECTION('',(0.99904822158187,0.0436193873650634,0.));
#496=DIRECTION('',(-0.99904822158187,-0.0436193873650634,0.));
#497=DIRECTION('',(0.,0.,1.));
#498=DIRECTION('',(-0.99904822158187,-0.0436193873650634,0.));
#499=DIRECTION('',(-0.0436193873650634,0.99904822158187,0.));
#500=DIRECTION('',(-0.999048221581873,-0.0436193873650694,0.));
#501=DIRECTION('',(0.,0.,1.));
#502=DIRECTION('',(-0.999048221581869,-0.0436193873650762,0.));
#503=DIRECTION('',(0.,0.,1.));
#504=DIRECTION('',(-0.999048221581869,-0.0436193873650762,0.));
#505=DIRECTION('',(0.,0.,1.));
#506=DIRECTION('',(0.0436193873650762,-0.999048221581869,0.));
#507=DIRECTION('',(0.999048221581869,0.0436193873650762,0.));
#508=DIRECTION('',(-0.0436193873650762,0.999048221581869,0.));
#509=DIRECTION('',(-0.999048221581873,-0.0436193873650694,0.));
#510=DIRECTION('',(0.0436193873650634,0.99904822158187,0.));
#511=DIRECTION('',(-0.99904822158187,0.0436193873650634,0.));
#512=DIRECTION('',(0.99904822158187,-0.0436193873650634,0.));
#513=DIRECTION('',(0.,0.,1.));
#514=DIRECTION('',(0.99904822158187,-0.0436193873650634,0.));
#515=DIRECTION('',(-0.0436193873650634,-0.99904822158187,0.));
#516=DIRECTION('',(0.999048221581873,-0.0436193873650694,0.));
#517=DIRECTION('',(0.,1.,0.));
#518=DIRECTION('',(0.,0.,1.));
#519=DIRECTION('',(0.,1.,0.));
#520=DIRECTION('',(0.,0.,1.));
#521=DIRECTION('',(1.,0.,0.));
#522=DIRECTION('',(0.,0.,-1.));
#523=DIRECTION('',(0.,0.,1.));
#524=DIRECTION('',(0.999999999998736,0.,0.));
#525=DIRECTION('',(0.,0.,1.));
#526=DIRECTION('',(0.999999999998736,0.,0.));
#527=DIRECTION('',(0.,0.,1.));
#528=DIRECTION('',(0.999999999998736,0.,0.));
#529=DIRECTION('',(0.,0.,1.));
#530=DIRECTION('',(0.999999999999019,0.,0.));
#531=DIRECTION('',(0.,0.,1.));
#532=DIRECTION('',(0.999999999999019,0.,0.));
#533=DIRECTION('',(0.,0.,1.));
#534=DIRECTION('',(0.,0.,1.));
#535=DIRECTION('',(0.999999999999019,0.,0.));
#536=DIRECTION('',(0.,1.,0.));
#537=DIRECTION('',(0.,1.,0.));
#538=DIRECTION('',(0.,0.,1.));
#539=DIRECTION('',(1.,0.,0.));
#540=DIRECTION('',(0.,0.,-1.));
#541=DIRECTION('',(1.,0.,0.));
#542=DIRECTION('',(1.,0.,0.));
#543=DIRECTION('',(0.,0.,1.));
#544=DIRECTION('',(0.,-1.,0.));
#545=DIRECTION('',(0.,0.,-1.));
#546=DIRECTION('',(0.,1.,0.));
#547=DIRECTION('',(0.,1.,0.));
#548=DIRECTION('',(0.,0.,1.));
#549=DIRECTION('',(1.,0.,0.));
#550=DIRECTION('',(0.,0.,-1.));
#551=DIRECTION('',(0.,0.,1.));
#552=DIRECTION('',(0.999999999998564,0.,0.));
#553=DIRECTION('',(0.,0.,1.));
#554=DIRECTION('',(0.999999999998564,0.,0.));
#555=DIRECTION('',(0.,0.,1.));
#556=DIRECTION('',(0.999999999998564,0.,0.));
#557=DIRECTION('',(0.,0.,1.));
#558=DIRECTION('',(0.999999999999849,0.,0.));
#559=DIRECTION('',(0.,0.,1.));
#560=DIRECTION('',(0.999999999999849,0.,0.));
#561=DIRECTION('',(0.,0.,1.));
#562=DIRECTION('',(0.,0.,1.));
#563=DIRECTION('',(0.999999999999849,0.,0.));
#564=DIRECTION('',(0.,1.,0.));
#565=DIRECTION('',(0.,1.,0.));
#566=DIRECTION('',(0.,0.,1.));
#567=DIRECTION('',(1.,0.,0.));
#568=DIRECTION('',(0.,0.,-1.));
#569=DIRECTION('',(1.,0.,0.));
#570=DIRECTION('',(1.,0.,0.));
#571=DIRECTION('',(0.,-1.,0.));
#572=DIRECTION('',(0.,0.,-1.));
#573=DIRECTION('',(0.,0.,1.));
#574=DIRECTION('',(1.,0.,0.));
#575=DIRECTION('',(0.,0.,1.));
#576=DIRECTION('',(1.,0.,0.));
#577=DIRECTION('',(0.,1.,0.));
#578=DIRECTION('',(0.,0.,-1.));
#579=DIRECTION('',(0.,1.,0.));
#580=DIRECTION('',(0.,0.,1.));
#581=DIRECTION('',(0.,-1.,0.));
#582=DIRECTION('',(0.,0.,-1.));
#583=DIRECTION('',(0.,-1.,0.));
#584=DIRECTION('',(0.,0.,-1.));
#585=DIRECTION('',(0.,1.,0.));
#586=DIRECTION('',(0.,0.,1.));
#587=CARTESIAN_POINT('',(0.,0.,0.));
#588=CARTESIAN_POINT('',(113044.575088493,-100498.123959809,0.));
#589=CARTESIAN_POINT('',(113044.575088493,-100498.123959809,0.));
#590=CARTESIAN_POINT('',(113044.575088493,-100498.123959809,40.0000000000028));
#591=CARTESIAN_POINT('',(113044.575088493,-100498.123959809,75.0000000000028));
#592=CARTESIAN_POINT('',(113044.575088493,-100498.123959809,110.000000000003));
#593=CARTESIAN_POINT('',(113044.575088493,-100498.123959809,0.));
#594=CARTESIAN_POINT('',(113044.575088493,-100498.123959809,150.));
#595=CARTESIAN_POINT('',(112996.37880125,-100496.019664463,150.));
#596=CARTESIAN_POINT('',(112996.37880125,-100496.019664463,150.));
#597=CARTESIAN_POINT('',(112996.37880125,-100496.019664463,0.));
#598=CARTESIAN_POINT('',(112996.37880125,-100496.019664463,0.));
#599=CARTESIAN_POINT('',(112996.37880125,-100496.019664463,0.));
#600=CARTESIAN_POINT('',(112996.37880125,-100496.019664463,0.));
#601=CARTESIAN_POINT('',(113044.575088493,-100498.123959809,75.0000000000028));
#602=CARTESIAN_POINT('',(113092.771375736,-100496.019664463,0.));
#603=CARTESIAN_POINT('',(113092.771375736,-100496.019664463,0.));
#604=CARTESIAN_POINT('',(113092.771375736,-100496.019664463,0.));
#605=CARTESIAN_POINT('',(113092.771375736,-100496.019664463,150.));
#606=CARTESIAN_POINT('',(113092.771375736,-100496.019664463,150.));
#607=CARTESIAN_POINT('',(113092.771375736,-100496.019664463,0.));
#608=CARTESIAN_POINT('',(113044.575088493,-100496.922816586,0.));
#609=CARTESIAN_POINT('',(113044.575088493,-100496.922816586,108.800000000003));
#610=CARTESIAN_POINT('',(113044.575088493,-100496.922816586,150.));
#611=CARTESIAN_POINT('',(113092.719032471,-100494.820806597,150.));
#612=CARTESIAN_POINT('',(113092.719032471,-100494.820806597,150.));
#613=CARTESIAN_POINT('',(113092.719032471,-100494.820806597,0.));
#614=CARTESIAN_POINT('',(113092.719032471,-100494.820806597,0.));
#615=CARTESIAN_POINT('',(113092.719032471,-100494.820806597,0.));
#616=CARTESIAN_POINT('',(113044.575088493,-100496.922816586,0.));
#617=CARTESIAN_POINT('',(113044.575088493,-100496.922816586,0.));
#618=CARTESIAN_POINT('',(113044.575088493,-100496.922816586,41.2000000000028));
#619=CARTESIAN_POINT('',(113044.575088493,-100496.922816586,75.0000000000028));
#620=CARTESIAN_POINT('',(113092.719032471,-100494.820806597,0.));
#621=CARTESIAN_POINT('',(113044.575088493,-100496.922816586,75.0000000000028));
#622=CARTESIAN_POINT('',(112996.431144515,-100494.820806597,0.));
#623=CARTESIAN_POINT('',(112996.431144515,-100494.820806597,0.));
#624=CARTESIAN_POINT('',(112996.431144515,-100494.820806597,0.));
#625=CARTESIAN_POINT('',(112996.431144515,-100494.820806597,150.));
#626=CARTESIAN_POINT('',(112996.431144515,-100494.820806597,150.));
#627=CARTESIAN_POINT('',(112996.431144515,-100494.820806597,0.));
#628=CARTESIAN_POINT('',(112992.075088493,-100491.523947466,150.));
#629=CARTESIAN_POINT('',(112992.075088493,-100491.523947466,150.));
#630=CARTESIAN_POINT('',(112992.075088493,-100483.123959809,150.));
#631=CARTESIAN_POINT('',(112992.075088493,-100483.123959809,0.));
#632=CARTESIAN_POINT('',(112992.075088493,-100483.123959809,0.));
#633=CARTESIAN_POINT('',(112992.075088493,-100491.523947466,0.));
#634=CARTESIAN_POINT('',(112992.075088493,-100491.523947466,0.));
#635=CARTESIAN_POINT('',(112992.075088493,-100491.523947466,0.));
#636=CARTESIAN_POINT('',(112992.075088493,-100491.523947466,0.));
#637=CARTESIAN_POINT('',(112996.575088493,-100491.523947466,150.));
#638=CARTESIAN_POINT('',(112996.575088493,-100491.523947466,0.));
#639=CARTESIAN_POINT('',(112996.575088493,-100491.523947466,0.));
#640=CARTESIAN_POINT('',(113092.575088493,-100491.523947466,150.));
#641=CARTESIAN_POINT('',(113097.075088492,-100491.523947466,150.));
#642=CARTESIAN_POINT('',(113092.575088493,-100491.523947466,0.));
#643=CARTESIAN_POINT('',(113097.075088492,-100491.523947466,0.));
#644=CARTESIAN_POINT('',(113097.075088492,-100491.523947466,0.));
#645=CARTESIAN_POINT('',(113092.575088493,-100491.523947466,0.));
#646=CARTESIAN_POINT('',(113097.075088493,-100491.523947466,150.));
#647=CARTESIAN_POINT('',(113097.075088493,-100483.123959809,150.));
#648=CARTESIAN_POINT('',(113097.075088493,-100491.523947466,0.));
#649=CARTESIAN_POINT('',(113097.075088493,-100483.123959809,0.));
#650=CARTESIAN_POINT('',(113097.075088493,-100483.123959809,0.));
#651=CARTESIAN_POINT('',(113097.075088493,-100491.523947466,0.));
#652=CARTESIAN_POINT('',(112992.075088493,-100483.123959809,150.));
#653=CARTESIAN_POINT('',(113095.875088493,-100483.123959809,150.));
#654=CARTESIAN_POINT('',(112992.075088493,-100483.123959809,0.));
#655=CARTESIAN_POINT('',(113095.875088493,-100483.123959809,0.));
#656=CARTESIAN_POINT('',(113095.875088493,-100483.123959809,0.));
#657=CARTESIAN_POINT('',(112992.075088493,-100483.123959809,0.));
#658=CARTESIAN_POINT('',(113095.875088493,-100491.523947466,150.));
#659=CARTESIAN_POINT('',(113095.875088493,-100491.523947466,150.));
#660=CARTESIAN_POINT('',(113095.875088493,-100491.523947466,0.));
#661=CARTESIAN_POINT('',(113095.875088493,-100491.523947466,0.));
#662=CARTESIAN_POINT('',(113095.875088493,-100491.523947466,0.));
#663=CARTESIAN_POINT('',(113095.875088493,-100491.523947466,0.));
#664=CARTESIAN_POINT('',(113092.575088493,-100491.523947466,150.));
#665=CARTESIAN_POINT('',(113092.575088493,-100491.523947466,0.));
#666=CARTESIAN_POINT('',(113092.575088493,-100491.523947466,0.));
#667=CARTESIAN_POINT('',(112996.575088493,-100491.523947466,150.));
#668=CARTESIAN_POINT('',(112993.275088493,-100491.523947466,150.));
#669=CARTESIAN_POINT('',(112996.575088493,-100491.523947466,0.));
#670=CARTESIAN_POINT('',(112993.275088493,-100491.523947466,0.));
#671=CARTESIAN_POINT('',(112993.275088493,-100491.523947466,0.));
#672=CARTESIAN_POINT('',(112996.575088493,-100491.523947466,0.));
#673=CARTESIAN_POINT('',(112993.275088493,-100491.523947466,150.));
#674=CARTESIAN_POINT('',(112993.275088493,-100483.123959809,150.));
#675=CARTESIAN_POINT('',(112993.275088493,-100491.523947466,0.));
#676=CARTESIAN_POINT('',(112993.275088493,-100483.123959809,0.));
#677=CARTESIAN_POINT('',(112993.275088493,-100483.123959809,0.));
#678=CARTESIAN_POINT('',(112993.275088493,-100491.523947466,0.));
#679=CARTESIAN_POINT('',(112992.075088493,-100483.123959809,150.));
#680=CARTESIAN_POINT('',(112992.075088493,-100483.123959809,0.));
#681=CARTESIAN_POINT('',(112992.075088493,-100483.123959809,0.));
#682=CARTESIAN_POINT('',(113036.586446703,-100491.84597296,0.));
#683=CARTESIAN_POINT('',(113036.586446703,-100491.84597296,150.));
#684=CARTESIAN_POINT('',(113044.575088493,-100523.123959808,75.0000000000028));
#685=CARTESIAN_POINT('',(113044.575088493,-100523.123959808,41.2000000000028));
#686=CARTESIAN_POINT('',(113044.575088493,-100548.123959808,75.0000000000028));
#687=CARTESIAN_POINT('',(113044.575088493,-100523.123959808,75.0000000000028));
#688=CARTESIAN_POINT('',(113044.575088493,-100523.123959808,40.0000000000028));
#689=CARTESIAN_POINT('',(113044.575088493,-100523.123959808,75.0000000000028));
#690=CARTESIAN_POINT('',(113044.575088493,-100523.123959808,75.0000000000028));
#691=(
GEOMETRIC_REPRESENTATION_CONTEXT(3)
GLOBAL_UNCERTAINTY_ASSIGNED_CONTEXT((#692))
GLOBAL_UNIT_ASSIGNED_CONTEXT((#698,#694,#693))
REPRESENTATION_CONTEXT('XB-9050','TOP_LEVEL_ASSEMBLY_PART')
);
#692=UNCERTAINTY_MEASURE_WITH_UNIT(LENGTH_MEASURE(2.E-005),#698,
'DISTANCE_ACCURACY_VALUE','Maximum Tolerance applied to model');
#693=(
NAMED_UNIT(*)
SI_UNIT($,.STERADIAN.)
SOLID_ANGLE_UNIT()
);
#694=(
CONVERSION_BASED_UNIT('DEGREE',#696)
NAMED_UNIT(#695)
PLANE_ANGLE_UNIT()
);
#695=DIMENSIONAL_EXPONENTS(0.,0.,0.,0.,0.,0.,0.);
#696=PLANE_ANGLE_MEASURE_WITH_UNIT(PLANE_ANGLE_MEASURE(0.0174532925),#697);
#697=(
NAMED_UNIT(*)
PLANE_ANGLE_UNIT()
SI_UNIT($,.RADIAN.)
);
#698=(
LENGTH_UNIT()
NAMED_UNIT(*)
SI_UNIT(.MILLI.,.METRE.)
);
ENDSEC;
END-ISO-10303-21;
