ISO-10303-21;
HEADER;
/* Generated by software containing ST-Developer
 * from STEP Tools, Inc. (www.steptools.com) 
 */

FILE_DESCRIPTION(
/* description */ (''),
/* implementation_level */ '2;1');

FILE_NAME(
/* name */ 'XB-9051',
/* time_stamp */ '2023-02-17T15:26:22+08:00',
/* author */ (''),
/* organization */ (''),
/* preprocessor_version */ 'ST-DEVELOPER v9',
/* originating_system */ 'EDS PLM SOLUTIONS - UNIGRAPHICS NX 2.0',
/* authorisation */ '');

FILE_SCHEMA (('CONFIG_CONTROL_DESIGN'));
ENDSEC;

DATA;
#10=SHAPE_REPRESENTATION_RELATIONSHIP('none',
'relationship between Admi287708qb-none and Admi287708qb-none',#94,#11);
#11=ADVANCED_BREP_SHAPE_REPRESENTATION('Admi287708qb-none',(#95),#691);
#12=CC_DESIGN_APPROVAL(#24,(#82));
#13=CC_DESIGN_APPROVAL(#25,(#84));
#14=CC_DESIGN_APPROVAL(#26,(#31));
#15=APPROVAL_PERSON_ORGANIZATION(#69,#24,#18);
#16=APPROVAL_PERSON_ORGANIZATION(#70,#25,#19);
#17=APPROVAL_PERSON_ORGANIZATION(#71,#26,#20);
#18=APPROVAL_ROLE('approver');
#19=APPROVAL_ROLE('approver');
#20=APPROVAL_ROLE('approver');
#21=APPROVAL_DATE_TIME(#39,#24);
#22=APPROVAL_DATE_TIME(#40,#25);
#23=APPROVAL_DATE_TIME(#41,#26);
#24=APPROVAL(#27,' ');
#25=APPROVAL(#28,' ');
#26=APPROVAL(#29,' ');
#27=APPROVAL_STATUS('not_yet_approved');
#28=APPROVAL_STATUS('not_yet_approved');
#29=APPROVAL_STATUS('not_yet_approved');
#30=CC_DESIGN_SECURITY_CLASSIFICATION(#31,(#84));
#31=SECURITY_CLASSIFICATION(' ',' ',#32);
#32=SECURITY_CLASSIFICATION_LEVEL('confidential');
#33=CC_DESIGN_DATE_AND_TIME_ASSIGNMENT(#37,#35,(#82));
#34=CC_DESIGN_DATE_AND_TIME_ASSIGNMENT(#38,#36,(#31));
#35=DATE_TIME_ROLE('creation_date');
#36=DATE_TIME_ROLE('classification_date');
#37=DATE_AND_TIME(#52,#42);
#38=DATE_AND_TIME(#53,#43);
#39=DATE_AND_TIME(#54,#44);
#40=DATE_AND_TIME(#55,#45);
#41=DATE_AND_TIME(#56,#46);
#42=LOCAL_TIME(0,0,0.,#47);
#43=LOCAL_TIME(0,0,0.,#48);
#44=LOCAL_TIME(0,0,0.,#49);
#45=LOCAL_TIME(0,0,0.,#50);
#46=LOCAL_TIME(0,0,0.,#51);
#47=COORDINATED_UNIVERSAL_TIME_OFFSET(0,0,.BEHIND.);
#48=COORDINATED_UNIVERSAL_TIME_OFFSET(0,0,.BEHIND.);
#49=COORDINATED_UNIVERSAL_TIME_OFFSET(0,0,.BEHIND.);
#50=COORDINATED_UNIVERSAL_TIME_OFFSET(0,0,.BEHIND.);
#51=COORDINATED_UNIVERSAL_TIME_OFFSET(0,0,.BEHIND.);
#52=CALENDAR_DATE(0,1,1);
#53=CALENDAR_DATE(0,1,1);
#54=CALENDAR_DATE(0,1,1);
#55=CALENDAR_DATE(0,1,1);
#56=CALENDAR_DATE(0,1,1);
#57=CC_DESIGN_PERSON_AND_ORGANIZATION_ASSIGNMENT(#65,#61,(#82,#84));
#58=CC_DESIGN_PERSON_AND_ORGANIZATION_ASSIGNMENT(#66,#62,(#86));
#59=CC_DESIGN_PERSON_AND_ORGANIZATION_ASSIGNMENT(#67,#63,(#84));
#60=CC_DESIGN_PERSON_AND_ORGANIZATION_ASSIGNMENT(#68,#64,(#31));
#61=PERSON_AND_ORGANIZATION_ROLE('creator');
#62=PERSON_AND_ORGANIZATION_ROLE('design_owner');
#63=PERSON_AND_ORGANIZATION_ROLE('design_supplier');
#64=PERSON_AND_ORGANIZATION_ROLE('classification_officer');
#65=PERSON_AND_ORGANIZATION(#79,#72);
#66=PERSON_AND_ORGANIZATION(#79,#73);
#67=PERSON_AND_ORGANIZATION(#79,#74);
#68=PERSON_AND_ORGANIZATION(#79,#75);
#69=PERSON_AND_ORGANIZATION(#79,#76);
#70=PERSON_AND_ORGANIZATION(#79,#77);
#71=PERSON_AND_ORGANIZATION(#79,#78);
#72=ORGANIZATION(' ',' ',' ');
#73=ORGANIZATION(' ',' ',' ');
#74=ORGANIZATION(' ',' ',' ');
#75=ORGANIZATION(' ',' ',' ');
#76=ORGANIZATION(' ',' ',' ');
#77=ORGANIZATION(' ',' ',' ');
#78=ORGANIZATION(' ',' ',' ');
#79=PERSON(' ',' ',' ',(' '),$,$);
#80=SHAPE_DEFINITION_REPRESENTATION(#81,#94);
#81=PRODUCT_DEFINITION_SHAPE('','',#82);
#82=PRODUCT_DEFINITION(' ','',#84,#83);
#83=DESIGN_CONTEXT('',#93,'design');
#84=PRODUCT_DEFINITION_FORMATION_WITH_SPECIFIED_SOURCE(' ',' ',#86,.NOT_KNOWN.);
#85=PRODUCT_RELATED_PRODUCT_CATEGORY('detail','',(#86));
#86=PRODUCT('Admi287708qb','Admi287708qb',' ',(#91));
#87=PRODUCT_CATEGORY_RELATIONSHIP(' ',' ',#89,#90);
#88=PRODUCT_CATEGORY_RELATIONSHIP('','',#90,#85);
#89=PRODUCT_CATEGORY('part',' ');
#90=PRODUCT_CATEGORY(' ','');
#91=MECHANICAL_CONTEXT(' ',#93,'mechanical');
#92=APPLICATION_PROTOCOL_DEFINITION('international standard',
'config_control_design',1994,#93);
#93=APPLICATION_CONTEXT(
'configuration controlled 3D designs of mechanical parts and assemblies
');
#94=SHAPE_REPRESENTATION('Admi287708qb-none',(#449),#691);
#95=MANIFOLD_SOLID_BREP('',#96);
#96=CLOSED_SHELL('',(#122,#123,#124,#125,#126,#127,#128,#129,#130,#131,#132,
#133,#134,#135,#136,#137,#138,#139,#140));
#97=FACE_BOUND('',#187,.T.);
#98=FACE_BOUND('',#188,.T.);
#99=FACE_BOUND('',#189,.T.);
#100=FACE_BOUND('',#190,.T.);
#101=FACE_BOUND('',#191,.T.);
#102=ELLIPSE('',#454,40.0381074065323,40.);
#103=ELLIPSE('',#456,40.0381074065323,40.);
#104=ELLIPSE('',#467,38.8369641843364,38.8);
#105=ELLIPSE('',#469,38.8369641843364,38.8);
#106=CYLINDRICAL_SURFACE('',#453,4.49999999998454);
#107=CYLINDRICAL_SURFACE('',#460,4.49999999998327);
#108=CYLINDRICAL_SURFACE('',#466,3.29999999998639);
#109=CYLINDRICAL_SURFACE('',#473,3.29999999999636);
#110=CYLINDRICAL_SURFACE('',#479,38.8);
#111=CYLINDRICAL_SURFACE('',#481,40.);
#112=CIRCLE('',#451,4.49999999998454);
#113=CIRCLE('',#452,4.49999999998454);
#114=CIRCLE('',#458,4.49999999998327);
#115=CIRCLE('',#459,4.49999999998327);
#116=CIRCLE('',#464,3.29999999998639);
#117=CIRCLE('',#465,3.29999999998639);
#118=CIRCLE('',#471,3.29999999999636);
#119=CIRCLE('',#472,3.29999999999636);
#120=CIRCLE('',#478,38.8);
#121=CIRCLE('',#480,40.);
#122=ADVANCED_FACE('',(#154),#141,.F.);
#123=ADVANCED_FACE('',(#155),#106,.T.);
#124=ADVANCED_FACE('',(#156),#142,.T.);
#125=ADVANCED_FACE('',(#157),#143,.F.);
#126=ADVANCED_FACE('',(#158),#107,.T.);
#127=ADVANCED_FACE('',(#159),#144,.T.);
#128=ADVANCED_FACE('',(#160),#145,.F.);
#129=ADVANCED_FACE('',(#161),#146,.F.);
#130=ADVANCED_FACE('',(#162),#108,.F.);
#131=ADVANCED_FACE('',(#163),#147,.T.);
#132=ADVANCED_FACE('',(#164),#148,.F.);
#133=ADVANCED_FACE('',(#165),#109,.F.);
#134=ADVANCED_FACE('',(#166),#149,.T.);
#135=ADVANCED_FACE('',(#167),#150,.F.);
#136=ADVANCED_FACE('',(#168),#151,.F.);
#137=ADVANCED_FACE('',(#169),#152,.T.);
#138=ADVANCED_FACE('',(#97,#98),#110,.F.);
#139=ADVANCED_FACE('',(#99,#100),#111,.T.);
#140=ADVANCED_FACE('',(#101,#170),#153,.F.);
#141=PLANE('',#450);
#142=PLANE('',#455);
#143=PLANE('',#457);
#144=PLANE('',#461);
#145=PLANE('',#462);
#146=PLANE('',#463);
#147=PLANE('',#468);
#148=PLANE('',#470);
#149=PLANE('',#474);
#150=PLANE('',#475);
#151=PLANE('',#476);
#152=PLANE('',#477);
#153=PLANE('',#482);
#154=FACE_OUTER_BOUND('',#171,.T.);
#155=FACE_OUTER_BOUND('',#172,.T.);
#156=FACE_OUTER_BOUND('',#173,.T.);
#157=FACE_OUTER_BOUND('',#174,.T.);
#158=FACE_OUTER_BOUND('',#175,.T.);
#159=FACE_OUTER_BOUND('',#176,.T.);
#160=FACE_OUTER_BOUND('',#177,.T.);
#161=FACE_OUTER_BOUND('',#178,.T.);
#162=FACE_OUTER_BOUND('',#179,.T.);
#163=FACE_OUTER_BOUND('',#180,.T.);
#164=FACE_OUTER_BOUND('',#181,.T.);
#165=FACE_OUTER_BOUND('',#182,.T.);
#166=FACE_OUTER_BOUND('',#183,.T.);
#167=FACE_OUTER_BOUND('',#184,.T.);
#168=FACE_OUTER_BOUND('',#185,.T.);
#169=FACE_OUTER_BOUND('',#186,.T.);
#170=FACE_OUTER_BOUND('',#192,.T.);
#171=EDGE_LOOP('',(#193,#194,#195,#196));
#172=EDGE_LOOP('',(#197,#198,#199,#200));
#173=EDGE_LOOP('',(#201,#202,#203,#204,#205,#206));
#174=EDGE_LOOP('',(#207,#208,#209,#210,#211,#212));
#175=EDGE_LOOP('',(#213,#214,#215,#216));
#176=EDGE_LOOP('',(#217,#218,#219,#220));
#177=EDGE_LOOP('',(#221,#222,#223,#224));
#178=EDGE_LOOP('',(#225,#226,#227,#228));
#179=EDGE_LOOP('',(#229,#230,#231,#232));
#180=EDGE_LOOP('',(#233,#234,#235,#236,#237,#238));
#181=EDGE_LOOP('',(#239,#240,#241,#242,#243,#244));
#182=EDGE_LOOP('',(#245,#246,#247,#248));
#183=EDGE_LOOP('',(#249,#250,#251,#252));
#184=EDGE_LOOP('',(#253,#254,#255,#256));
#185=EDGE_LOOP('',(#257,#258,#259,#260,#261,#262,#263,#264,#265,#266,#267,
#268,#269,#270));
#186=EDGE_LOOP('',(#271,#272,#273,#274,#275,#276,#277,#278,#279,#280,#281,
#282,#283,#284));
#187=EDGE_LOOP('',(#285,#286));
#188=EDGE_LOOP('',(#287));
#189=EDGE_LOOP('',(#288,#289));
#190=EDGE_LOOP('',(#290));
#191=EDGE_LOOP('',(#291));
#192=EDGE_LOOP('',(#292));
#193=ORIENTED_EDGE('',*,*,#327,.T.);
#194=ORIENTED_EDGE('',*,*,#328,.F.);
#195=ORIENTED_EDGE('',*,*,#329,.F.);
#196=ORIENTED_EDGE('',*,*,#330,.T.);
#197=ORIENTED_EDGE('',*,*,#331,.F.);
#198=ORIENTED_EDGE('',*,*,#330,.F.);
#199=ORIENTED_EDGE('',*,*,#332,.T.);
#200=ORIENTED_EDGE('',*,*,#333,.T.);
#201=ORIENTED_EDGE('',*,*,#334,.F.);
#202=ORIENTED_EDGE('',*,*,#335,.T.);
#203=ORIENTED_EDGE('',*,*,#336,.F.);
#204=ORIENTED_EDGE('',*,*,#333,.F.);
#205=ORIENTED_EDGE('',*,*,#337,.T.);
#206=ORIENTED_EDGE('',*,*,#338,.T.);
#207=ORIENTED_EDGE('',*,*,#335,.F.);
#208=ORIENTED_EDGE('',*,*,#339,.T.);
#209=ORIENTED_EDGE('',*,*,#338,.F.);
#210=ORIENTED_EDGE('',*,*,#340,.F.);
#211=ORIENTED_EDGE('',*,*,#341,.T.);
#212=ORIENTED_EDGE('',*,*,#342,.T.);
#213=ORIENTED_EDGE('',*,*,#343,.F.);
#214=ORIENTED_EDGE('',*,*,#341,.F.);
#215=ORIENTED_EDGE('',*,*,#344,.T.);
#216=ORIENTED_EDGE('',*,*,#345,.T.);
#217=ORIENTED_EDGE('',*,*,#346,.F.);
#218=ORIENTED_EDGE('',*,*,#345,.F.);
#219=ORIENTED_EDGE('',*,*,#347,.T.);
#220=ORIENTED_EDGE('',*,*,#348,.T.);
#221=ORIENTED_EDGE('',*,*,#349,.T.);
#222=ORIENTED_EDGE('',*,*,#348,.F.);
#223=ORIENTED_EDGE('',*,*,#350,.F.);
#224=ORIENTED_EDGE('',*,*,#351,.T.);
#225=ORIENTED_EDGE('',*,*,#352,.T.);
#226=ORIENTED_EDGE('',*,*,#351,.F.);
#227=ORIENTED_EDGE('',*,*,#353,.F.);
#228=ORIENTED_EDGE('',*,*,#354,.T.);
#229=ORIENTED_EDGE('',*,*,#355,.T.);
#230=ORIENTED_EDGE('',*,*,#354,.F.);
#231=ORIENTED_EDGE('',*,*,#356,.F.);
#232=ORIENTED_EDGE('',*,*,#357,.T.);
#233=ORIENTED_EDGE('',*,*,#358,.T.);
#234=ORIENTED_EDGE('',*,*,#359,.F.);
#235=ORIENTED_EDGE('',*,*,#360,.T.);
#236=ORIENTED_EDGE('',*,*,#361,.F.);
#237=ORIENTED_EDGE('',*,*,#357,.F.);
#238=ORIENTED_EDGE('',*,*,#362,.T.);
#239=ORIENTED_EDGE('',*,*,#363,.T.);
#240=ORIENTED_EDGE('',*,*,#360,.F.);
#241=ORIENTED_EDGE('',*,*,#364,.T.);
#242=ORIENTED_EDGE('',*,*,#358,.F.);
#243=ORIENTED_EDGE('',*,*,#365,.F.);
#244=ORIENTED_EDGE('',*,*,#366,.T.);
#245=ORIENTED_EDGE('',*,*,#367,.T.);
#246=ORIENTED_EDGE('',*,*,#366,.F.);
#247=ORIENTED_EDGE('',*,*,#368,.F.);
#248=ORIENTED_EDGE('',*,*,#369,.T.);
#249=ORIENTED_EDGE('',*,*,#370,.F.);
#250=ORIENTED_EDGE('',*,*,#369,.F.);
#251=ORIENTED_EDGE('',*,*,#371,.T.);
#252=ORIENTED_EDGE('',*,*,#372,.T.);
#253=ORIENTED_EDGE('',*,*,#373,.T.);
#254=ORIENTED_EDGE('',*,*,#372,.F.);
#255=ORIENTED_EDGE('',*,*,#374,.F.);
#256=ORIENTED_EDGE('',*,*,#328,.T.);
#257=ORIENTED_EDGE('',*,*,#329,.T.);
#258=ORIENTED_EDGE('',*,*,#374,.T.);
#259=ORIENTED_EDGE('',*,*,#371,.F.);
#260=ORIENTED_EDGE('',*,*,#368,.T.);
#261=ORIENTED_EDGE('',*,*,#365,.T.);
#262=ORIENTED_EDGE('',*,*,#362,.F.);
#263=ORIENTED_EDGE('',*,*,#356,.T.);
#264=ORIENTED_EDGE('',*,*,#353,.T.);
#265=ORIENTED_EDGE('',*,*,#350,.T.);
#266=ORIENTED_EDGE('',*,*,#347,.F.);
#267=ORIENTED_EDGE('',*,*,#344,.F.);
#268=ORIENTED_EDGE('',*,*,#340,.T.);
#269=ORIENTED_EDGE('',*,*,#337,.F.);
#270=ORIENTED_EDGE('',*,*,#332,.F.);
#271=ORIENTED_EDGE('',*,*,#327,.F.);
#272=ORIENTED_EDGE('',*,*,#331,.T.);
#273=ORIENTED_EDGE('',*,*,#336,.T.);
#274=ORIENTED_EDGE('',*,*,#342,.F.);
#275=ORIENTED_EDGE('',*,*,#343,.T.);
#276=ORIENTED_EDGE('',*,*,#346,.T.);
#277=ORIENTED_EDGE('',*,*,#349,.F.);
#278=ORIENTED_EDGE('',*,*,#352,.F.);
#279=ORIENTED_EDGE('',*,*,#355,.F.);
#280=ORIENTED_EDGE('',*,*,#361,.T.);
#281=ORIENTED_EDGE('',*,*,#363,.F.);
#282=ORIENTED_EDGE('',*,*,#367,.F.);
#283=ORIENTED_EDGE('',*,*,#370,.T.);
#284=ORIENTED_EDGE('',*,*,#373,.F.);
#285=ORIENTED_EDGE('',*,*,#364,.F.);
#286=ORIENTED_EDGE('',*,*,#359,.T.);
#287=ORIENTED_EDGE('',*,*,#375,.F.);
#288=ORIENTED_EDGE('',*,*,#339,.F.);
#289=ORIENTED_EDGE('',*,*,#334,.T.);
#290=ORIENTED_EDGE('',*,*,#376,.T.);
#291=ORIENTED_EDGE('',*,*,#375,.T.);
#292=ORIENTED_EDGE('',*,*,#376,.F.);
#293=VERTEX_POINT('',#589);
#294=VERTEX_POINT('',#590);
#295=VERTEX_POINT('',#592);
#296=VERTEX_POINT('',#594);
#297=VERTEX_POINT('',#598);
#298=VERTEX_POINT('',#600);
#299=VERTEX_POINT('',#604);
#300=VERTEX_POINT('',#605);
#301=VERTEX_POINT('',#607);
#302=VERTEX_POINT('',#610);
#303=VERTEX_POINT('',#615);
#304=VERTEX_POINT('',#617);
#305=VERTEX_POINT('',#621);
#306=VERTEX_POINT('',#623);
#307=VERTEX_POINT('',#627);
#308=VERTEX_POINT('',#629);
#309=VERTEX_POINT('',#633);
#310=VERTEX_POINT('',#635);
#311=VERTEX_POINT('',#639);
#312=VERTEX_POINT('',#641);
#313=VERTEX_POINT('',#645);
#314=VERTEX_POINT('',#647);
#315=VERTEX_POINT('',#651);
#316=VERTEX_POINT('',#652);
#317=VERTEX_POINT('',#654);
#318=VERTEX_POINT('',#656);
#319=VERTEX_POINT('',#661);
#320=VERTEX_POINT('',#664);
#321=VERTEX_POINT('',#668);
#322=VERTEX_POINT('',#670);
#323=VERTEX_POINT('',#674);
#324=VERTEX_POINT('',#676);
#325=VERTEX_POINT('',#685);
#326=VERTEX_POINT('',#688);
#327=EDGE_CURVE('',#293,#294,#377,.T.);
#328=EDGE_CURVE('',#295,#294,#378,.T.);
#329=EDGE_CURVE('',#296,#295,#379,.T.);
#330=EDGE_CURVE('',#296,#293,#380,.T.);
#331=EDGE_CURVE('',#293,#297,#112,.T.);
#332=EDGE_CURVE('',#296,#298,#113,.T.);
#333=EDGE_CURVE('',#298,#297,#381,.T.);
#334=EDGE_CURVE('',#299,#300,#102,.T.);
#335=EDGE_CURVE('',#299,#301,#382,.T.);
#336=EDGE_CURVE('',#297,#301,#383,.T.);
#337=EDGE_CURVE('',#298,#302,#384,.T.);
#338=EDGE_CURVE('',#302,#300,#385,.T.);
#339=EDGE_CURVE('',#299,#300,#103,.T.);
#340=EDGE_CURVE('',#303,#302,#386,.T.);
#341=EDGE_CURVE('',#303,#304,#387,.T.);
#342=EDGE_CURVE('',#304,#301,#388,.T.);
#343=EDGE_CURVE('',#304,#305,#114,.T.);
#344=EDGE_CURVE('',#303,#306,#115,.T.);
#345=EDGE_CURVE('',#306,#305,#389,.T.);
#346=EDGE_CURVE('',#305,#307,#390,.T.);
#347=EDGE_CURVE('',#306,#308,#391,.T.);
#348=EDGE_CURVE('',#308,#307,#392,.T.);
#349=EDGE_CURVE('',#309,#307,#393,.T.);
#350=EDGE_CURVE('',#310,#308,#394,.T.);
#351=EDGE_CURVE('',#310,#309,#395,.T.);
#352=EDGE_CURVE('',#311,#309,#396,.T.);
#353=EDGE_CURVE('',#312,#310,#397,.T.);
#354=EDGE_CURVE('',#312,#311,#398,.T.);
#355=EDGE_CURVE('',#313,#311,#116,.T.);
#356=EDGE_CURVE('',#314,#312,#117,.T.);
#357=EDGE_CURVE('',#314,#313,#399,.T.);
#358=EDGE_CURVE('',#315,#316,#400,.T.);
#359=EDGE_CURVE('',#317,#316,#104,.T.);
#360=EDGE_CURVE('',#317,#318,#401,.T.);
#361=EDGE_CURVE('',#313,#318,#402,.T.);
#362=EDGE_CURVE('',#314,#315,#403,.T.);
#363=EDGE_CURVE('',#319,#318,#404,.T.);
#364=EDGE_CURVE('',#317,#316,#105,.T.);
#365=EDGE_CURVE('',#320,#315,#405,.T.);
#366=EDGE_CURVE('',#320,#319,#406,.T.);
#367=EDGE_CURVE('',#321,#319,#118,.T.);
#368=EDGE_CURVE('',#322,#320,#119,.T.);
#369=EDGE_CURVE('',#322,#321,#407,.T.);
#370=EDGE_CURVE('',#321,#323,#408,.T.);
#371=EDGE_CURVE('',#322,#324,#409,.T.);
#372=EDGE_CURVE('',#324,#323,#410,.T.);
#373=EDGE_CURVE('',#294,#323,#411,.T.);
#374=EDGE_CURVE('',#295,#324,#412,.T.);
#375=EDGE_CURVE('',#325,#325,#120,.T.);
#376=EDGE_CURVE('',#326,#326,#121,.T.);
#377=LINE('',#588,#413);
#378=LINE('',#591,#414);
#379=LINE('',#593,#415);
#380=LINE('',#595,#416);
#381=LINE('',#601,#417);
#382=LINE('',#606,#418);
#383=LINE('',#608,#419);
#384=LINE('',#609,#420);
#385=LINE('',#611,#421);
#386=LINE('',#614,#422);
#387=LINE('',#616,#423);
#388=LINE('',#618,#424);
#389=LINE('',#624,#425);
#390=LINE('',#626,#426);
#391=LINE('',#628,#427);
#392=LINE('',#630,#428);
#393=LINE('',#632,#429);
#394=LINE('',#634,#430);
#395=LINE('',#636,#431);
#396=LINE('',#638,#432);
#397=LINE('',#640,#433);
#398=LINE('',#642,#434);
#399=LINE('',#648,#435);
#400=LINE('',#650,#436);
#401=LINE('',#655,#437);
#402=LINE('',#657,#438);
#403=LINE('',#658,#439);
#404=LINE('',#660,#440);
#405=LINE('',#663,#441);
#406=LINE('',#665,#442);
#407=LINE('',#671,#443);
#408=LINE('',#673,#444);
#409=LINE('',#675,#445);
#410=LINE('',#677,#446);
#411=LINE('',#679,#447);
#412=LINE('',#680,#448);
#413=VECTOR('',#485,1.);
#414=VECTOR('',#486,1.);
#415=VECTOR('',#487,1.);
#416=VECTOR('',#488,1.);
#417=VECTOR('',#495,1.);
#418=VECTOR('',#500,1.);
#419=VECTOR('',#501,1.);
#420=VECTOR('',#502,1.);
#421=VECTOR('',#503,1.);
#422=VECTOR('',#508,1.);
#423=VECTOR('',#509,1.);
#424=VECTOR('',#510,1.);
#425=VECTOR('',#517,1.);
#426=VECTOR('',#520,1.);
#427=VECTOR('',#521,1.);
#428=VECTOR('',#522,1.);
#429=VECTOR('',#525,1.);
#430=VECTOR('',#526,1.);
#431=VECTOR('',#527,1.);
#432=VECTOR('',#530,1.);
#433=VECTOR('',#531,1.);
#434=VECTOR('',#532,1.);
#435=VECTOR('',#539,1.);
#436=VECTOR('',#542,1.);
#437=VECTOR('',#545,1.);
#438=VECTOR('',#546,1.);
#439=VECTOR('',#547,1.);
#440=VECTOR('',#550,1.);
#441=VECTOR('',#553,1.);
#442=VECTOR('',#554,1.);
#443=VECTOR('',#561,1.);
#444=VECTOR('',#564,1.);
#445=VECTOR('',#565,1.);
#446=VECTOR('',#566,1.);
#447=VECTOR('',#569,1.);
#448=VECTOR('',#570,1.);
#449=AXIS2_PLACEMENT_3D('',#587,#483,#484);
#450=AXIS2_PLACEMENT_3D('',#596,#489,#490);
#451=AXIS2_PLACEMENT_3D('',#597,#491,#492);
#452=AXIS2_PLACEMENT_3D('',#599,#493,#494);
#453=AXIS2_PLACEMENT_3D('',#602,#496,#497);
#454=AXIS2_PLACEMENT_3D('',#603,#498,#499);
#455=AXIS2_PLACEMENT_3D('',#612,#504,#505);
#456=AXIS2_PLACEMENT_3D('',#613,#506,#507);
#457=AXIS2_PLACEMENT_3D('',#619,#511,#512);
#458=AXIS2_PLACEMENT_3D('',#620,#513,#514);
#459=AXIS2_PLACEMENT_3D('',#622,#515,#516);
#460=AXIS2_PLACEMENT_3D('',#625,#518,#519);
#461=AXIS2_PLACEMENT_3D('',#631,#523,#524);
#462=AXIS2_PLACEMENT_3D('',#637,#528,#529);
#463=AXIS2_PLACEMENT_3D('',#643,#533,#534);
#464=AXIS2_PLACEMENT_3D('',#644,#535,#536);
#465=AXIS2_PLACEMENT_3D('',#646,#537,#538);
#466=AXIS2_PLACEMENT_3D('',#649,#540,#541);
#467=AXIS2_PLACEMENT_3D('',#653,#543,#544);
#468=AXIS2_PLACEMENT_3D('',#659,#548,#549);
#469=AXIS2_PLACEMENT_3D('',#662,#551,#552);
#470=AXIS2_PLACEMENT_3D('',#666,#555,#556);
#471=AXIS2_PLACEMENT_3D('',#667,#557,#558);
#472=AXIS2_PLACEMENT_3D('',#669,#559,#560);
#473=AXIS2_PLACEMENT_3D('',#672,#562,#563);
#474=AXIS2_PLACEMENT_3D('',#678,#567,#568);
#475=AXIS2_PLACEMENT_3D('',#681,#571,#572);
#476=AXIS2_PLACEMENT_3D('',#682,#573,#574);
#477=AXIS2_PLACEMENT_3D('',#683,#575,#576);
#478=AXIS2_PLACEMENT_3D('',#684,#577,#578);
#479=AXIS2_PLACEMENT_3D('',#686,#579,#580);
#480=AXIS2_PLACEMENT_3D('',#687,#581,#582);
#481=AXIS2_PLACEMENT_3D('',#689,#583,#584);
#482=AXIS2_PLACEMENT_3D('',#690,#585,#586);
#483=DIRECTION('',(0.,0.,1.));
#484=DIRECTION('',(1.,0.,0.));
#485=DIRECTION('',(0.,1.,0.));
#486=DIRECTION('',(0.,0.,1.));
#487=DIRECTION('',(0.,1.,0.));
#488=DIRECTION('',(0.,0.,1.));
#489=DIRECTION('',(1.,0.,0.));
#490=DIRECTION('',(0.,0.,-1.));
#491=DIRECTION('',(0.,0.,1.));
#492=DIRECTION('',(0.999999999998737,0.,0.));
#493=DIRECTION('',(0.,0.,1.));
#494=DIRECTION('',(0.999999999998737,0.,0.));
#495=DIRECTION('',(0.,0.,1.));
#496=DIRECTION('',(0.,0.,1.));
#497=DIRECTION('',(0.999999999998737,0.,0.));
#498=DIRECTION('',(-0.0436193873650377,-0.999048221581871,0.));
#499=DIRECTION('',(-0.999048221581871,0.0436193873650377,0.));
#500=DIRECTION('',(0.,0.,1.));
#501=DIRECTION('',(0.999048221581871,-0.0436193873650377,0.));
#502=DIRECTION('',(0.999048221581871,-0.0436193873650377,0.));
#503=DIRECTION('',(0.,0.,1.));
#504=DIRECTION('',(-0.0436193873650377,-0.999048221581871,0.));
#505=DIRECTION('',(0.999048221581873,-0.043619387365041,0.));
#506=DIRECTION('',(-0.0436193873650634,0.99904822158187,0.));
#507=DIRECTION('',(0.99904822158187,0.0436193873650634,0.));
#508=DIRECTION('',(-0.99904822158187,-0.0436193873650634,0.));
#509=DIRECTION('',(0.,0.,1.));
#510=DIRECTION('',(-0.99904822158187,-0.0436193873650634,0.));
#511=DIRECTION('',(-0.0436193873650634,0.99904822158187,0.));
#512=DIRECTION('',(-0.999048221581873,-0.0436193873650694,0.));
#513=DIRECTION('',(0.,0.,1.));
#514=DIRECTION('',(0.99999999999902,0.,0.));
#515=DIRECTION('',(0.,0.,1.));
#516=DIRECTION('',(0.99999999999902,0.,0.));
#517=DIRECTION('',(0.,0.,1.));
#518=DIRECTION('',(0.,0.,1.));
#519=DIRECTION('',(0.99999999999902,0.,0.));
#520=DIRECTION('',(0.,1.,0.));
#521=DIRECTION('',(0.,1.,0.));
#522=DIRECTION('',(0.,0.,1.));
#523=DIRECTION('',(1.,0.,0.));
#524=DIRECTION('',(0.,0.,-1.));
#525=DIRECTION('',(1.,0.,0.));
#526=DIRECTION('',(1.,0.,0.));
#527=DIRECTION('',(0.,0.,1.));
#528=DIRECTION('',(0.,-1.,0.));
#529=DIRECTION('',(0.,0.,-1.));
#530=DIRECTION('',(0.,1.,0.));
#531=DIRECTION('',(0.,1.,0.));
#532=DIRECTION('',(0.,0.,1.));
#533=DIRECTION('',(1.,0.,0.));
#534=DIRECTION('',(0.,0.,-1.));
#535=DIRECTION('',(0.,0.,1.));
#536=DIRECTION('',(0.999999999998564,0.,0.));
#537=DIRECTION('',(0.,0.,1.));
#538=DIRECTION('',(0.999999999998564,0.,0.));
#539=DIRECTION('',(0.,0.,1.));
#540=DIRECTION('',(0.,0.,1.));
#541=DIRECTION('',(0.999999999998564,0.,0.));
#542=DIRECTION('',(0.,0.,1.));
#543=DIRECTION('',(-0.0436193873650762,0.999048221581869,0.));
#544=DIRECTION('',(0.999048221581869,0.0436193873650762,0.));
#545=DIRECTION('',(0.,0.,1.));
#546=DIRECTION('',(-0.999048221581869,-0.0436193873650762,0.));
#547=DIRECTION('',(-0.999048221581869,-0.0436193873650762,0.));
#548=DIRECTION('',(-0.0436193873650762,0.999048221581869,0.));
#549=DIRECTION('',(-0.999048221581873,-0.0436193873650694,0.));
#550=DIRECTION('',(0.99904822158187,-0.0436193873650634,0.));
#551=DIRECTION('',(-0.0436193873650634,-0.99904822158187,0.));
#552=DIRECTION('',(-0.99904822158187,0.0436193873650634,0.));
#553=DIRECTION('',(0.99904822158187,-0.0436193873650634,0.));
#554=DIRECTION('',(0.,0.,1.));
#555=DIRECTION('',(-0.0436193873650634,-0.99904822158187,0.));
#556=DIRECTION('',(0.999048221581873,-0.0436193873650694,0.));
#557=DIRECTION('',(0.,0.,1.));
#558=DIRECTION('',(0.999999999999848,0.,0.));
#559=DIRECTION('',(0.,0.,1.));
#560=DIRECTION('',(0.999999999999848,0.,0.));
#561=DIRECTION('',(0.,0.,1.));
#562=DIRECTION('',(0.,0.,1.));
#563=DIRECTION('',(0.999999999999848,0.,0.));
#564=DIRECTION('',(0.,1.,0.));
#565=DIRECTION('',(0.,1.,0.));
#566=DIRECTION('',(0.,0.,1.));
#567=DIRECTION('',(1.,0.,0.));
#568=DIRECTION('',(0.,0.,-1.));
#569=DIRECTION('',(1.,0.,0.));
#570=DIRECTION('',(1.,0.,0.));
#571=DIRECTION('',(0.,-1.,0.));
#572=DIRECTION('',(0.,0.,-1.));
#573=DIRECTION('',(0.,0.,1.));
#574=DIRECTION('',(1.,0.,0.));
#575=DIRECTION('',(0.,0.,1.));
#576=DIRECTION('',(1.,0.,0.));
#577=DIRECTION('',(0.,1.,0.));
#578=DIRECTION('',(0.999999999999867,0.,0.));
#579=DIRECTION('',(0.,1.,0.));
#580=DIRECTION('',(0.,0.,1.));
#581=DIRECTION('',(0.,1.,0.));
#582=DIRECTION('',(1.00000000000016,0.,0.));
#583=DIRECTION('',(0.,1.,0.));
#584=DIRECTION('',(0.,0.,1.));
#585=DIRECTION('',(0.,1.,0.));
#586=DIRECTION('',(0.,0.,1.));
#587=CARTESIAN_POINT('',(0.,0.,0.));
#588=CARTESIAN_POINT('',(113149.565308073,-100402.645719924,225.));
#589=CARTESIAN_POINT('',(113149.565308073,-100402.645719924,225.));
#590=CARTESIAN_POINT('',(113149.565308073,-100394.245732267,225.));
#591=CARTESIAN_POINT('',(113149.565308073,-100394.245732267,75.));
#592=CARTESIAN_POINT('',(113149.565308073,-100394.245732267,75.));
#593=CARTESIAN_POINT('',(113149.565308073,-100402.645719924,75.));
#594=CARTESIAN_POINT('',(113149.565308073,-100402.645719924,75.));
#595=CARTESIAN_POINT('',(113149.565308073,-100402.645719924,75.));
#596=CARTESIAN_POINT('',(113149.565308073,-100402.645719924,75.));
#597=CARTESIAN_POINT('',(113154.065308073,-100402.645719924,225.));
#598=CARTESIAN_POINT('',(113153.86902083,-100407.141436921,225.));
#599=CARTESIAN_POINT('',(113154.065308073,-100402.645719924,75.));
#600=CARTESIAN_POINT('',(113153.86902083,-100407.141436921,75.));
#601=CARTESIAN_POINT('',(113153.86902083,-100407.141436921,75.));
#602=CARTESIAN_POINT('',(113154.065308073,-100402.645719924,75.));
#603=CARTESIAN_POINT('',(113202.065308073,-100409.245732267,150.000000000006));
#604=CARTESIAN_POINT('',(113202.065308073,-100409.245732267,190.000000000006));
#605=CARTESIAN_POINT('',(113202.065308073,-100409.245732267,110.000000000006));
#606=CARTESIAN_POINT('',(113202.065308073,-100409.245732267,75.));
#607=CARTESIAN_POINT('',(113202.065308073,-100409.245732267,225.));
#608=CARTESIAN_POINT('',(113153.86902083,-100407.141436921,225.));
#609=CARTESIAN_POINT('',(113153.86902083,-100407.141436921,75.));
#610=CARTESIAN_POINT('',(113202.065308073,-100409.245732267,75.));
#611=CARTESIAN_POINT('',(113202.065308073,-100409.245732267,75.));
#612=CARTESIAN_POINT('',(113153.86902083,-100407.141436921,75.));
#613=CARTESIAN_POINT('',(113202.065308073,-100409.245732267,150.000000000006));
#614=CARTESIAN_POINT('',(113250.261595316,-100407.141436921,75.));
#615=CARTESIAN_POINT('',(113250.261595316,-100407.141436921,75.));
#616=CARTESIAN_POINT('',(113250.261595316,-100407.141436921,75.));
#617=CARTESIAN_POINT('',(113250.261595316,-100407.141436921,225.));
#618=CARTESIAN_POINT('',(113250.261595316,-100407.141436921,225.));
#619=CARTESIAN_POINT('',(113250.261595316,-100407.141436921,75.));
#620=CARTESIAN_POINT('',(113250.065308073,-100402.645719924,225.));
#621=CARTESIAN_POINT('',(113254.565308073,-100402.645719924,225.));
#622=CARTESIAN_POINT('',(113250.065308073,-100402.645719924,75.));
#623=CARTESIAN_POINT('',(113254.565308073,-100402.645719924,75.));
#624=CARTESIAN_POINT('',(113254.565308073,-100402.645719924,75.));
#625=CARTESIAN_POINT('',(113250.065308073,-100402.645719924,75.));
#626=CARTESIAN_POINT('',(113254.565308073,-100402.645719924,225.));
#627=CARTESIAN_POINT('',(113254.565308073,-100394.245732267,225.));
#628=CARTESIAN_POINT('',(113254.565308073,-100402.645719924,75.));
#629=CARTESIAN_POINT('',(113254.565308073,-100394.245732267,75.));
#630=CARTESIAN_POINT('',(113254.565308073,-100394.245732267,75.));
#631=CARTESIAN_POINT('',(113254.565308073,-100402.645719924,75.));
#632=CARTESIAN_POINT('',(113149.565308073,-100394.245732267,225.));
#633=CARTESIAN_POINT('',(113253.365308073,-100394.245732267,225.));
#634=CARTESIAN_POINT('',(113149.565308073,-100394.245732267,75.));
#635=CARTESIAN_POINT('',(113253.365308073,-100394.245732267,75.));
#636=CARTESIAN_POINT('',(113253.365308073,-100394.245732267,75.));
#637=CARTESIAN_POINT('',(113149.565308073,-100394.245732267,75.));
#638=CARTESIAN_POINT('',(113253.365308073,-100402.645719924,225.));
#639=CARTESIAN_POINT('',(113253.365308073,-100402.645719924,225.));
#640=CARTESIAN_POINT('',(113253.365308073,-100402.645719924,75.));
#641=CARTESIAN_POINT('',(113253.365308073,-100402.645719924,75.));
#642=CARTESIAN_POINT('',(113253.365308073,-100402.645719924,75.));
#643=CARTESIAN_POINT('',(113253.365308073,-100402.645719924,75.));
#644=CARTESIAN_POINT('',(113250.065308073,-100402.645719924,225.));
#645=CARTESIAN_POINT('',(113250.209252051,-100405.942579055,225.));
#646=CARTESIAN_POINT('',(113250.065308073,-100402.645719924,75.));
#647=CARTESIAN_POINT('',(113250.209252051,-100405.942579055,75.));
#648=CARTESIAN_POINT('',(113250.209252051,-100405.942579055,75.));
#649=CARTESIAN_POINT('',(113250.065308073,-100402.645719924,75.));
#650=CARTESIAN_POINT('',(113202.065308073,-100408.044589045,75.));
#651=CARTESIAN_POINT('',(113202.065308073,-100408.044589045,75.));
#652=CARTESIAN_POINT('',(113202.065308073,-100408.044589045,111.200000000006));
#653=CARTESIAN_POINT('',(113202.065308073,-100408.044589045,150.000000000006));
#654=CARTESIAN_POINT('',(113202.065308073,-100408.044589045,188.800000000006));
#655=CARTESIAN_POINT('',(113202.065308073,-100408.044589045,75.));
#656=CARTESIAN_POINT('',(113202.065308073,-100408.044589045,225.));
#657=CARTESIAN_POINT('',(113250.209252051,-100405.942579055,225.));
#658=CARTESIAN_POINT('',(113250.209252051,-100405.942579055,75.));
#659=CARTESIAN_POINT('',(113250.209252051,-100405.942579055,75.));
#660=CARTESIAN_POINT('',(113153.921364095,-100405.942579055,225.));
#661=CARTESIAN_POINT('',(113153.921364095,-100405.942579055,225.));
#662=CARTESIAN_POINT('',(113202.065308073,-100408.044589045,150.000000000006));
#663=CARTESIAN_POINT('',(113153.921364095,-100405.942579055,75.));
#664=CARTESIAN_POINT('',(113153.921364095,-100405.942579055,75.));
#665=CARTESIAN_POINT('',(113153.921364095,-100405.942579055,75.));
#666=CARTESIAN_POINT('',(113153.921364095,-100405.942579055,75.));
#667=CARTESIAN_POINT('',(113154.065308073,-100402.645719924,225.));
#668=CARTESIAN_POINT('',(113150.765308073,-100402.645719924,225.));
#669=CARTESIAN_POINT('',(113154.065308073,-100402.645719924,75.));
#670=CARTESIAN_POINT('',(113150.765308073,-100402.645719924,75.));
#671=CARTESIAN_POINT('',(113150.765308073,-100402.645719924,75.));
#672=CARTESIAN_POINT('',(113154.065308073,-100402.645719924,75.));
#673=CARTESIAN_POINT('',(113150.765308073,-100402.645719924,225.));
#674=CARTESIAN_POINT('',(113150.765308073,-100394.245732267,225.));
#675=CARTESIAN_POINT('',(113150.765308073,-100402.645719924,75.));
#676=CARTESIAN_POINT('',(113150.765308073,-100394.245732267,75.));
#677=CARTESIAN_POINT('',(113150.765308073,-100394.245732267,75.));
#678=CARTESIAN_POINT('',(113150.765308073,-100402.645719924,75.));
#679=CARTESIAN_POINT('',(113149.565308073,-100394.245732267,225.));
#680=CARTESIAN_POINT('',(113149.565308073,-100394.245732267,75.));
#681=CARTESIAN_POINT('',(113149.565308073,-100394.245732267,75.));
#682=CARTESIAN_POINT('',(113194.076666284,-100402.967745418,75.));
#683=CARTESIAN_POINT('',(113194.076666284,-100402.967745418,225.));
#684=CARTESIAN_POINT('',(113202.065308073,-100434.245732267,150.000000000006));
#685=CARTESIAN_POINT('',(113240.865308073,-100434.245732267,150.000000000006));
#686=CARTESIAN_POINT('',(113202.065308073,-100434.245732267,150.000000000006));
#687=CARTESIAN_POINT('',(113202.065308073,-100434.245732267,150.000000000006));
#688=CARTESIAN_POINT('',(113242.065308073,-100434.245732267,150.000000000006));
#689=CARTESIAN_POINT('',(113202.065308073,-100434.245732267,150.000000000006));
#690=CARTESIAN_POINT('',(113202.065308073,-100434.245732267,150.000000000006));
#691=(
GEOMETRIC_REPRESENTATION_CONTEXT(3)
GLOBAL_UNCERTAINTY_ASSIGNED_CONTEXT((#692))
GLOBAL_UNIT_ASSIGNED_CONTEXT((#698,#694,#693))
REPRESENTATION_CONTEXT('XB-9051','TOP_LEVEL_ASSEMBLY_PART')
);
#692=UNCERTAINTY_MEASURE_WITH_UNIT(LENGTH_MEASURE(2.E-005),#698,
'DISTANCE_ACCURACY_VALUE','Maximum Tolerance applied to model');
#693=(
NAMED_UNIT(*)
SI_UNIT($,.STERADIAN.)
SOLID_ANGLE_UNIT()
);
#694=(
CONVERSION_BASED_UNIT('DEGREE',#696)
NAMED_UNIT(#695)
PLANE_ANGLE_UNIT()
);
#695=DIMENSIONAL_EXPONENTS(0.,0.,0.,0.,0.,0.,0.);
#696=PLANE_ANGLE_MEASURE_WITH_UNIT(PLANE_ANGLE_MEASURE(0.0174532925),#697);
#697=(
NAMED_UNIT(*)
PLANE_ANGLE_UNIT()
SI_UNIT($,.RADIAN.)
);
#698=(
LENGTH_UNIT()
NAMED_UNIT(*)
SI_UNIT(.MILLI.,.METRE.)
);
ENDSEC;
END-ISO-10303-21;
